  0
SECTION
  2
HEADER
  9
$ACADVER
  1
AC1018
  9
$ACADMAINTVER
 70
     0
  9
$DWGCODEPAGE
  3
ANSI_932
  9
$INSBASE
 10
0.0
 20
0.0
 30
0.0
  9
$EXTMIN
 10
1.000000000000000E+20
 20
1.000000000000000E+20
 30
1.000000000000000E+20
  9
$EXTMAX
 10
-1.000000000000000E+20
 20
-1.000000000000000E+20
 30
-1.000000000000000E+20
  9
$LIMMIN
 10
0.0
 20
0.0
  9
$LIMMAX
 10
12.0
 20
9.0
  9
$ORTHOMODE
 70
     0
  9
$REGENMODE
 70
     1
  9
$FILLMODE
 70
     1
  9
$QTEXTMODE
 70
     0
  9
$MIRRTEXT
 70
     1
  9
$LTSCALE
 40
1.0
  9
$ATTMODE
 70
     1
  9
$TEXTSIZE
 40
0.2
  9
$TRACEWID
 40
0.05
  9
$TEXTSTYLE
  7
Standard
  9
$CLAYER
  8
0
  9
$CELTYPE
  6
ByLayer
  9
$CECOLOR
 62
   256
  9
$CELTSCALE
 40
1.0
  9
$DISPSILH
 70
     0
  9
$DIMSCALE
 40
1.0
  9
$DIMASZ
 40
0.18
  9
$DIMEXO
 40
0.0625
  9
$DIMDLI
 40
0.38
  9
$DIMRND
 40
0.0
  9
$DIMDLE
 40
0.0
  9
$DIMEXE
 40
0.18
  9
$DIMTP
 40
0.0
  9
$DIMTM
 40
0.0
  9
$DIMTXT
 40
0.18
  9
$DIMCEN
 40
0.09
  9
$DIMTSZ
 40
0.0
  9
$DIMTOL
 70
     0
  9
$DIMLIM
 70
     0
  9
$DIMTIH
 70
     1
  9
$DIMTOH
 70
     1
  9
$DIMSE1
 70
     0
  9
$DIMSE2
 70
     0
  9
$DIMTAD
 70
     0
  9
$DIMZIN
 70
     0
  9
$DIMBLK
  1

  9
$DIMASO
 70
     1
  9
$DIMSHO
 70
     1
  9
$DIMPOST
  1

  9
$DIMAPOST
  1

  9
$DIMALT
 70
     0
  9
$DIMALTD
 70
     2
  9
$DIMALTF
 40
25.4
  9
$DIMLFAC
 40
1.0
  9
$DIMTOFL
 70
     0
  9
$DIMTVP
 40
0.0
  9
$DIMTIX
 70
     0
  9
$DIMSOXD
 70
     0
  9
$DIMSAH
 70
     0
  9
$DIMBLK1
  1

  9
$DIMBLK2
  1

  9
$DIMSTYLE
  2
Standard
  9
$DIMCLRD
 70
     0
  9
$DIMCLRE
 70
     0
  9
$DIMCLRT
 70
     0
  9
$DIMTFAC
 40
1.0
  9
$DIMGAP
 40
0.09
  9
$DIMJUST
 70
     0
  9
$DIMSD1
 70
     0
  9
$DIMSD2
 70
     0
  9
$DIMTOLJ
 70
     1
  9
$DIMTZIN
 70
     0
  9
$DIMALTZ
 70
     0
  9
$DIMALTTZ
 70
     0
  9
$DIMUPT
 70
     0
  9
$DIMDEC
 70
     4
  9
$DIMTDEC
 70
     4
  9
$DIMALTU
 70
     2
  9
$DIMALTTD
 70
     2
  9
$DIMTXSTY
  7
Standard
  9
$DIMAUNIT
 70
     0
  9
$DIMADEC
 70
     0
  9
$DIMALTRND
 40
0.0
  9
$DIMAZIN
 70
     0
  9
$DIMDSEP
 70
    46
  9
$DIMATFIT
 70
     3
  9
$DIMFRAC
 70
     0
  9
$DIMLDRBLK
  1

  9
$DIMLUNIT
 70
     2
  9
$DIMLWD
 70
    -2
  9
$DIMLWE
 70
    -2
  9
$DIMTMOVE
 70
     0
  9
$LUNITS
 70
     2
  9
$LUPREC
 70
     4
  9
$SKETCHINC
 40
0.1
  9
$FILLETRAD
 40
0.5
  9
$AUNITS
 70
     0
  9
$AUPREC
 70
     0
  9
$MENU
  1
.
  9
$ELEVATION
 40
0.0
  9
$PELEVATION
 40
0.0
  9
$THICKNESS
 40
0.0
  9
$LIMCHECK
 70
     0
  9
$CHAMFERA
 40
0.5
  9
$CHAMFERB
 40
0.5
  9
$CHAMFERC
 40
1.0
  9
$CHAMFERD
 40
0.0
  9
$SKPOLY
 70
     0
  9
$TDCREATE
 40
2458640.052476852
  9
$TDUCREATE
 40
2458640.010810185
  9
$TDUPDATE
 40
2458640.052476863
  9
$TDUUPDATE
 40
2458640.010810197
  9
$TDINDWG
 40
0.0000000116
  9
$TDUSRTIMER
 40
0.0000000116
  9
$USRTIMER
 70
     1
  9
$ANGBASE
 50
0.0
  9
$ANGDIR
 70
     0
  9
$PDMODE
 70
     0
  9
$PDSIZE
 40
0.0
  9
$PLINEWID
 40
0.0
  9
$SPLFRAME
 70
     0
  9
$SPLINETYPE
 70
     6
  9
$SPLINESEGS
 70
     8
  9
$HANDSEED
  5
22D
  9
$SURFTAB1
 70
     6
  9
$SURFTAB2
 70
     6
  9
$SURFTYPE
 70
     6
  9
$SURFU
 70
     6
  9
$SURFV
 70
     6
  9
$UCSBASE
  2

  9
$UCSNAME
  2

  9
$UCSORG
 10
0.0
 20
0.0
 30
0.0
  9
$UCSXDIR
 10
1.0
 20
0.0
 30
0.0
  9
$UCSYDIR
 10
0.0
 20
1.0
 30
0.0
  9
$UCSORTHOREF
  2

  9
$UCSORTHOVIEW
 70
     0
  9
$UCSORGTOP
 10
0.0
 20
0.0
 30
0.0
  9
$UCSORGBOTTOM
 10
0.0
 20
0.0
 30
0.0
  9
$UCSORGLEFT
 10
0.0
 20
0.0
 30
0.0
  9
$UCSORGRIGHT
 10
0.0
 20
0.0
 30
0.0
  9
$UCSORGFRONT
 10
0.0
 20
0.0
 30
0.0
  9
$UCSORGBACK
 10
0.0
 20
0.0
 30
0.0
  9
$PUCSBASE
  2

  9
$PUCSNAME
  2

  9
$PUCSORG
 10
0.0
 20
0.0
 30
0.0
  9
$PUCSXDIR
 10
1.0
 20
0.0
 30
0.0
  9
$PUCSYDIR
 10
0.0
 20
1.0
 30
0.0
  9
$PUCSORTHOREF
  2

  9
$PUCSORTHOVIEW
 70
     0
  9
$PUCSORGTOP
 10
0.0
 20
0.0
 30
0.0
  9
$PUCSORGBOTTOM
 10
0.0
 20
0.0
 30
0.0
  9
$PUCSORGLEFT
 10
0.0
 20
0.0
 30
0.0
  9
$PUCSORGRIGHT
 10
0.0
 20
0.0
 30
0.0
  9
$PUCSORGFRONT
 10
0.0
 20
0.0
 30
0.0
  9
$PUCSORGBACK
 10
0.0
 20
0.0
 30
0.0
  9
$USERI1
 70
     0
  9
$USERI2
 70
     0
  9
$USERI3
 70
     0
  9
$USERI4
 70
     0
  9
$USERI5
 70
     0
  9
$USERR1
 40
0.0
  9
$USERR2
 40
0.0
  9
$USERR3
 40
0.0
  9
$USERR4
 40
0.0
  9
$USERR5
 40
0.0
  9
$WORLDVIEW
 70
     1
  9
$SHADEDGE
 70
     3
  9
$SHADEDIF
 70
    70
  9
$TILEMODE
 70
     1
  9
$MAXACTVP
 70
    64
  9
$PINSBASE
 10
0.0
 20
0.0
 30
0.0
  9
$PLIMCHECK
 70
     0
  9
$PEXTMIN
 10
1.000000000000000E+20
 20
1.000000000000000E+20
 30
1.000000000000000E+20
  9
$PEXTMAX
 10
-1.000000000000000E+20
 20
-1.000000000000000E+20
 30
-1.000000000000000E+20
  9
$PLIMMIN
 10
0.0
 20
0.0
  9
$PLIMMAX
 10
12.0
 20
9.0
  9
$UNITMODE
 70
     0
  9
$VISRETAIN
 70
     1
  9
$PLINEGEN
 70
     0
  9
$PSLTSCALE
 70
     1
  9
$TREEDEPTH
 70
  3020
  9
$CMLSTYLE
  2
Standard
  9
$CMLJUST
 70
     0
  9
$CMLSCALE
 40
1.0
  9
$PROXYGRAPHICS
 70
     1
  9
$MEASUREMENT
 70
     0
  9
$CELWEIGHT
370
    -1
  9
$ENDCAPS
280
     0
  9
$JOINSTYLE
280
     0
  9
$LWDISPLAY
290
     1
  9
$INSUNITS
 70
     1
  9
$HYPERLINKBASE
  1

  9
$STYLESHEET
  1

  9
$XEDIT
290
     1
  9
$CEPSNTYPE
380
     0
  9
$PSTYLEMODE
290
     1
  9
$FINGERPRINTGUID
  2
{AE583C7E-8790-33BB-F10A-CC8BB6165B5E}
  9
$VERSIONGUID
  2
{FAEB1C32-E019-11D5-929B-00C0DF256EC4}
  9
$EXTNAMES
290
     1
  9
$PSVPSCALE
 40
0.0
  9
$OLESTARTUP
290
     0
  9
$SORTENTS
280
   127
  9
$INDEXCTL
280
     0
  9
$HIDETEXT
280
     1
  9
$XCLIPFRAME
290
     0
  9
$HALOGAP
280
     0
  9
$OBSCOLOR
 70
   257
  9
$OBSLTYPE
280
     0
  9
$INTERSECTIONDISPLAY
280
     0
  9
$INTERSECTIONCOLOR
 70
   257
  9
$DIMASSOC
280
     2
  9
$PROJECTNAME
  1

  0
ENDSEC
  0
SECTION
  2
CLASSES
  0
CLASS
  1
ACDBDICTIONARYWDFLT
  2
AcDbDictionaryWithDefault
  3
ObjectDBX Classes
 90
        0
 91
        3
280
     0
281
     0
  0
CLASS
  1
VISUALSTYLE
  2
AcDbVisualStyle
  3
ObjectDBX Classes
 90
     4095
 91
        3
280
     0
281
     0
  0
ENDSEC
  0
SECTION
  2
TABLES
  0
TABLE
  2
VPORT
  5
8
330
0
100
AcDbSymbolTable
 70
     1
  0
VPORT
  5
29
330
8
100
AcDbSymbolTableRecord
100
AcDbViewportTableRecord
  2
*Active
 70
     0
 10
0.0
 20
0.0
 11
1.0
 21
1.0
 12
0.0
 22
0.0
 13
0.0
 23
0.0
 14
0.5
 24
0.5
 15
0.5
 25
0.5
 16
0.0
 26
0.0
 36
1.0
 17
162.499986396007
 27
-59.99995522588543
 37
0.0
 40
119.9999104517709
 41
2.708335127655238
 42
50.0
 43
0.0
 44
0.0
 50
0.0
 51
0.0
 71
     0
 72
   100
 73
     1
 74
     3
 75
     0
 76
     0
 77
     0
 78
     0
281
     0
 65
     1
110
0.0
120
0.0
130
0.0
111
1.0
121
0.0
131
0.0
112
0.0
122
1.0
132
0.0
 79
     0
146
0.0
  0
ENDTAB
  0
TABLE
  2
LTYPE
  5
5
330
0
100
AcDbSymbolTable
 70
     1
  0
LTYPE
  5
14
330
5
100
AcDbSymbolTableRecord
100
AcDbLinetypeTableRecord
  2
ByBlock
 70
     0
  3

 72
    65
 73
     0
 40
0.0
  0
LTYPE
  5
15
330
5
100
AcDbSymbolTableRecord
100
AcDbLinetypeTableRecord
  2
ByLayer
 70
     0
  3

 72
    65
 73
     0
 40
0.0
  0
LTYPE
  5
16
330
5
100
AcDbSymbolTableRecord
100
AcDbLinetypeTableRecord
  2
Continuous
 70
     0
  3
Solid line
 72
    65
 73
     0
 40
0.0
  0
ENDTAB
  0
TABLE
  2
LAYER
  5
2
330
0
100
AcDbSymbolTable
 70
     6
  0
LAYER
  5
10
330
2
100
AcDbSymbolTableRecord
100
AcDbLayerTableRecord
  2
0
 70
     0
 62
     7
  6
Continuous
370
    -3
390
F
  0
LAYER
  5
3B
330
2
100
AcDbSymbolTableRecord
100
AcDbLayerTableRecord
  2
Outine
 70
     0
 62
     7
  6
Continuous
370
    -3
390
F
  0
LAYER
  5
228
330
2
100
AcDbSymbolTableRecord
100
AcDbLayerTableRecord
  2
Calque 2
 70
     1
 62
     7
  6
Continuous
370
    -3
390
F
  0
LAYER
  5
229
330
2
100
AcDbSymbolTableRecord
100
AcDbLayerTableRecord
  2
Right
 70
     1
 62
     7
  6
Continuous
370
    -3
390
F
  0
LAYER
  5
22A
330
2
100
AcDbSymbolTableRecord
100
AcDbLayerTableRecord
  2
Left
 70
     1
 62
     7
  6
Continuous
370
    -3
390
F
  0
LAYER
  5
22B
330
2
100
AcDbSymbolTableRecord
100
AcDbLayerTableRecord
  2
Calque 5
 70
     1
 62
     7
  6
Continuous
370
    -3
390
F
  0
ENDTAB
  0
TABLE
  2
STYLE
  5
3
330
0
100
AcDbSymbolTable
 70
     1
  0
STYLE
  5
11
330
3
100
AcDbSymbolTableRecord
100
AcDbTextStyleTableRecord
  2
Standard
 70
     0
 40
0.0
 41
1.0
 50
0.0
 71
     0
 42
0.2
  3
txt
  4

  0
ENDTAB
  0
TABLE
  2
VIEW
  5
6
330
0
100
AcDbSymbolTable
 70
     0
  0
ENDTAB
  0
TABLE
  2
UCS
  5
7
330
0
100
AcDbSymbolTable
 70
     0
  0
ENDTAB
  0
TABLE
  2
APPID
  5
9
330
0
100
AcDbSymbolTable
 70
     1
  0
APPID
  5
12
330
9
100
AcDbSymbolTableRecord
100
AcDbRegAppTableRecord
  2
ACAD
 70
     0
  0
ENDTAB
  0
TABLE
  2
DIMSTYLE
  5
A
330
0
100
AcDbSymbolTable
 70
     1
100
AcDbDimStyleTable
  0
DIMSTYLE
105
27
330
A
100
AcDbSymbolTableRecord
100
AcDbDimStyleTableRecord
  2
Standard
 70
     0
340
11
  0
ENDTAB
  0
TABLE
  2
BLOCK_RECORD
  5
1
330
0
100
AcDbSymbolTable
 70
     1
  0
BLOCK_RECORD
  5
1F
330
1
100
AcDbSymbolTableRecord
100
AcDbBlockTableRecord
  2
*Model_Space
340
22
  0
BLOCK_RECORD
  5
1B
330
1
100
AcDbSymbolTableRecord
100
AcDbBlockTableRecord
  2
*Paper_Space
340
1E
  0
BLOCK_RECORD
  5
23
330
1
100
AcDbSymbolTableRecord
100
AcDbBlockTableRecord
  2
*Paper_Space0
340
26
  0
ENDTAB
  0
ENDSEC
  0
SECTION
  2
BLOCKS
  0
BLOCK
  5
20
330
1F
100
AcDbEntity
  8
0
100
AcDbBlockBegin
  2
*Model_Space
 70
     0
 71
     0
 10
0.0
 20
0.0
 30
0.0
  3
*Model_Space
  1

  0
ENDBLK
  5
21
330
1F
100
AcDbEntity
  8
0
100
AcDbBlockEnd
  0
BLOCK
  5
1C
330
1B
100
AcDbEntity
 67
     1
  8
0
100
AcDbBlockBegin
  2
*Paper_Space
 70
     0
 71
     0
 10
0.0
 20
0.0
 30
0.0
  3
*Paper_Space
  1

  0
ENDBLK
  5
1D
330
1B
100
AcDbEntity
 67
     1
  8
0
100
AcDbBlockEnd
  0
BLOCK
  5
24
330
23
100
AcDbEntity
  8
0
100
AcDbBlockBegin
  2
*Paper_Space0
 70
     0
 71
     0
 10
0.0
 20
0.0
 30
0.0
  3
*Paper_Space0
  1

  0
ENDBLK
  5
25
330
23
100
AcDbEntity
  8
0
100
AcDbBlockEnd
  0
ENDSEC
  0
SECTION
  2
ENTITIES
  0
SPLINE
  5
3C
330
1F
100
AcDbEntity
  8
Outine
370
     0
100
AcDbSpline
210
0.0
220
0.0
230
1.0
 70
    11
 71
     3
 72
    50
 73
    46
 74
     0
 42
0.0000000001
 43
0.0000000001
 40
0.0
 40
0.0
 40
0.0
 40
0.0
 40
1.0
 40
1.0
 40
1.0
 40
2.0
 40
2.0
 40
2.0
 40
3.0
 40
3.0
 40
3.0
 40
4.0
 40
4.0
 40
4.0
 40
5.0
 40
5.0
 40
5.0
 40
6.0
 40
6.0
 40
6.0
 40
7.0
 40
7.0
 40
7.0
 40
8.0
 40
8.0
 40
8.0
 40
9.0
 40
9.0
 40
9.0
 40
10.0
 40
10.0
 40
10.0
 40
11.0
 40
11.0
 40
11.0
 40
12.0
 40
12.0
 40
12.0
 40
13.0
 40
13.0
 40
13.0
 40
14.0
 40
14.0
 40
14.0
 40
15.0
 40
15.0
 40
15.0
 40
15.0
 10
324.9996282824654
 20
-9.99577229567814
 30
0.0
 10
324.9996282824654
 20
-4.997972275226202
 30
0.0
 10
324.9996282824654
 20
-3.226504176710735
 30
0.0
 10
323.3907686908537
 20
-1.609031846385937
 30
0.0
 10
321.773985379626
 20
-0.0001722547742625
 30
0.0
 10
320.0018282620134
 20
-0.0001722547742625
 30
0.0
 10
315.0043727511101
 20
-0.0001722547742625
 30
0.0
 10
315.0043727511101
 20
-0.0001722547742625
 30
0.0
 10
315.0043727511101
 20
0.0
 30
0.0
 10
315.0043727511101
 20
0.0
 30
0.0
 10
315.0043727511101
 20
0.0
 30
0.0
 10
10.0000786650347
 20
0.0
 30
0.0
 10
10.0000786650347
 20
0.0
 30
0.0
 10
5.002278644582764
 20
0.0
 30
0.0
 10
3.230810546067298
 20
0.0
 30
0.0
 10
1.613338215742499
 20
-1.608859591611674
 30
0.0
 10
0.0044786241308248
 20
-3.225815157613685
 30
0.0
 10
0.0044786241308248
 20
-4.997800020451939
 30
0.0
 10
0.0044786241308248
 20
-9.995255531355353
 30
0.0
 10
0.0044786241308248
 20
-9.995255531355353
 30
0.0
 10
0.0
 20
-9.995255531355353
 30
0.0
 10
0.0
 20
-9.995255531355353
 30
0.0
 10
0.0
 20
-9.995255531355353
 30
0.0
 10
0.0
 20
-110.0079277611265
 30
0.0
 10
0.0
 20
-110.0079277611265
 30
0.0
 10
0.0
 20
-115.0057277815784
 30
0.0
 10
0.0
 20
-116.7771958800939
 30
0.0
 10
1.608859591611674
 20
-118.3946682104187
 30
0.0
 10
3.017214625981808
 20
-119.7959607990441
 30
0.0
 10
4.545286728464373
 20
-119.9766560572454
 30
0.0
 10
8.218103025289224
 20
-119.9999104517709
 30
0.0
 10
8.218103025289224
 20
-119.9999104517709
 30
0.0
 10
315.0043727511101
 20
-119.9999104517709
 30
0.0
 10
315.0043727511101
 20
-119.9999104517709
 30
0.0
 10
320.002172771562
 20
-119.9999104517709
 30
0.0
 10
321.7736408700774
 20
-119.9999104517709
 30
0.0
 10
323.3911132004022
 20
-118.3910508601592
 30
0.0
 10
324.9999727920139
 20
-116.7740952941572
 30
0.0
 10
324.9999727920139
 20
-115.0021104313189
 30
0.0
 10
324.9999727920139
 20
-110.0046549204155
 30
0.0
 10
324.9999727920139
 20
-110.0046549204155
 30
0.0
 10
324.9999727920139
 20
-9.99577229567814
 30
0.0
 10
324.9999727920139
 20
-9.99577229567814
 30
0.0
 10
324.9999727920139
 20
-9.99577229567814
 30
0.0
 10
324.9996282824654
 20
-9.99577229567814
 30
0.0
 10
324.9996282824654
 20
-9.99577229567814
 30
0.0
  0
SPLINE
  5
3D
330
1F
100
AcDbEntity
  8
Outine
370
     0
100
AcDbSpline
210
0.0
220
0.0
230
1.0
 70
    11
 71
     3
 72
    17
 73
    13
 74
     0
 42
0.0000000001
 43
0.0000000001
 40
0.0
 40
0.0
 40
0.0
 40
0.0
 40
1.0
 40
1.0
 40
1.0
 40
2.0
 40
2.0
 40
2.0
 40
3.0
 40
3.0
 40
3.0
 40
4.0
 40
4.0
 40
4.0
 40
4.0
 10
317.499999920625
 20
-5.999978297111117
 30
0.0
 10
318.3285453848276
 20
-5.999978297111117
 30
0.0
 10
318.9999944949028
 20
-6.671599661960572
 30
0.0
 10
318.9999944949028
 20
-7.499972871388896
 30
0.0
 10
318.9999944949028
 20
-8.32834608081722
 30
0.0
 10
318.3285453848276
 20
-8.999967445666675
 30
0.0
 10
317.499999920625
 20
-8.999967445666675
 30
0.0
 10
316.6714544564225
 20
-8.999967445666675
 30
0.0
 10
316.0000053463472
 20
-8.32834608081722
 30
0.0
 10
316.0000053463472
 20
-7.499972871388896
 30
0.0
 10
316.0000053463472
 20
-6.671599661960572
 30
0.0
 10
316.6714544564225
 20
-5.999978297111117
 30
0.0
 10
317.499999920625
 20
-5.999978297111117
 30
0.0
  0
SPLINE
  5
3E
330
1F
100
AcDbEntity
  8
Outine
370
     0
100
AcDbSpline
210
0.0
220
0.0
230
1.0
 70
    11
 71
     3
 72
    23
 73
    19
 74
     0
 42
0.0000000001
 43
0.0000000001
 40
0.0
 40
0.0
 40
0.0
 40
0.0
 40
1.0
 40
1.0
 40
1.0
 40
2.0
 40
2.0
 40
2.0
 40
3.0
 40
3.0
 40
3.0
 40
4.0
 40
4.0
 40
4.0
 40
5.0
 40
5.0
 40
5.0
 40
6.0
 40
6.0
 40
6.0
 40
6.0
 10
316.0000053463472
 20
-14.50006238786804
 30
0.0
 10
316.0000053463472
 20
-13.67168917843972
 30
0.0
 10
316.6714544564225
 20
-13.00006781359026
 30
0.0
 10
317.499999920625
 20
-13.00006781359026
 30
0.0
 10
318.3285453848276
 20
-13.00006781359026
 30
0.0
 10
318.9999944949028
 20
-13.67168917843972
 30
0.0
 10
318.9999944949028
 20
-14.50006238786804
 30
0.0
 10
318.9999944949028
 20
-14.50006238786804
 30
0.0
 10
318.9999944949028
 20
-18.00010714610761
 30
0.0
 10
318.9999944949028
 20
-18.00010714610761
 30
0.0
 10
318.9999944949028
 20
-18.82848035553594
 30
0.0
 10
318.3285453848276
 20
-19.50010172038539
 30
0.0
 10
317.499999920625
 20
-19.50010172038539
 30
0.0
 10
316.6714544564225
 20
-19.50010172038539
 30
0.0
 10
316.0000053463472
 20
-18.82848035553594
 30
0.0
 10
316.0000053463472
 20
-18.00010714610761
 30
0.0
 10
316.0000053463472
 20
-18.00010714610761
 30
0.0
 10
316.0000053463472
 20
-14.50006238786804
 30
0.0
 10
316.0000053463472
 20
-14.50006238786804
 30
0.0
  0
POLYLINE
  5
3F
330
1F
100
AcDbEntity
  8
Outine
370
     0
100
AcDb2dPolyline
 66
     1
 10
0.0
 20
0.0
 30
0.0
  0
VERTEX
  5
40
330
3F
100
AcDbEntity
  8
Outine
370
     0
100
AcDbVertex
100
AcDb2dVertex
 10
319.0168754627805
 20
-27.48962266022829
 30
0.0
  0
VERTEX
  5
41
330
3F
100
AcDbEntity
  8
Outine
370
     0
100
AcDbVertex
100
AcDb2dVertex
 10
319.0168754627805
 20
-41.48962943841232
 30
0.0
  0
VERTEX
  5
42
330
3F
100
AcDbEntity
  8
Outine
370
     0
100
AcDbVertex
100
AcDb2dVertex
 10
305.0166964298222
 20
-41.48962943841232
 30
0.0
  0
VERTEX
  5
43
330
3F
100
AcDbEntity
  8
Outine
370
     0
100
AcDbVertex
100
AcDb2dVertex
 10
305.0166964298222
 20
-27.48962266022829
 30
0.0
  0
VERTEX
  5
44
330
3F
100
AcDbEntity
  8
Outine
370
     0
100
AcDbVertex
100
AcDb2dVertex
 10
319.0168754627805
 20
-27.48962266022829
 30
0.0
  0
SEQEND
  5
45
330
3F
100
AcDbEntity
  8
Outine
370
     0
  0
SPLINE
  5
46
330
1F
100
AcDbEntity
  8
Outine
370
     0
100
AcDbSpline
210
0.0
220
0.0
230
1.0
 70
    11
 71
     3
 72
    23
 73
    19
 74
     0
 42
0.0000000001
 43
0.0000000001
 40
0.0
 40
0.0
 40
0.0
 40
0.0
 40
1.0
 40
1.0
 40
1.0
 40
2.0
 40
2.0
 40
2.0
 40
3.0
 40
3.0
 40
3.0
 40
4.0
 40
4.0
 40
4.0
 40
5.0
 40
5.0
 40
5.0
 40
6.0
 40
6.0
 40
6.0
 40
6.0
 10
318.9999944949028
 20
-69.99986163614587
 30
0.0
 10
318.9999944949028
 20
-69.99986163614587
 30
0.0
 10
318.9999944949028
 20
-82.99992944973613
 30
0.0
 10
318.9999944949028
 20
-82.99992944973613
 30
0.0
 10
318.9999944949028
 20
-83.82830265916445
 30
0.0
 10
318.3285453848276
 20
-84.49992402401391
 30
0.0
 10
317.499999920625
 20
-84.49992402401391
 30
0.0
 10
316.6714544564225
 20
-84.49992402401391
 30
0.0
 10
316.0000053463472
 20
-83.82830265916445
 30
0.0
 10
316.0000053463472
 20
-82.99992944973613
 30
0.0
 10
316.0000053463472
 20
-82.99992944973613
 30
0.0
 10
316.0000053463472
 20
-69.99986163614587
 30
0.0
 10
316.0000053463472
 20
-69.99986163614587
 30
0.0
 10
316.0000053463472
 20
-69.17148842671754
 30
0.0
 10
316.6714544564225
 20
-68.49986706186809
 30
0.0
 10
317.499999920625
 20
-68.49986706186809
 30
0.0
 10
318.3285453848276
 20
-68.49986706186809
 30
0.0
 10
318.9999944949028
 20
-69.17148842671754
 30
0.0
 10
318.9999944949028
 20
-69.99986163614587
 30
0.0
  0
POLYLINE
  5
47
330
1F
100
AcDbEntity
  8
Outine
370
     0
100
AcDb2dPolyline
 66
     1
 10
0.0
 20
0.0
 30
0.0
  0
VERTEX
  5
48
330
47
100
AcDbEntity
  8
Outine
370
     0
100
AcDbVertex
100
AcDb2dVertex
 10
251.5446803841625
 20
-79.58980168366158
 30
0.0
  0
VERTEX
  5
49
330
47
100
AcDbEntity
  8
Outine
370
     0
100
AcDbVertex
100
AcDb2dVertex
 10
251.5446803841625
 20
-65.59031166980034
 30
0.0
  0
VERTEX
  5
4A
330
47
100
AcDbEntity
  8
Outine
370
     0
100
AcDbVertex
100
AcDb2dVertex
 10
265.5445149075722
 20
-65.59031166980034
 30
0.0
  0
VERTEX
  5
4B
330
47
100
AcDbEntity
  8
Outine
370
     0
100
AcDbVertex
100
AcDb2dVertex
 10
265.5445149075722
 20
-79.58980168366158
 30
0.0
  0
VERTEX
  5
4C
330
47
100
AcDbEntity
  8
Outine
370
     0
100
AcDbVertex
100
AcDb2dVertex
 10
251.5446803841625
 20
-79.58980168366158
 30
0.0
  0
SEQEND
  5
4D
330
47
100
AcDbEntity
  8
Outine
370
     0
  0
SPLINE
  5
4E
330
1F
100
AcDbEntity
  8
Outine
370
     0
100
AcDbSpline
210
0.0
220
0.0
230
1.0
 70
    11
 71
     3
 72
    17
 73
    13
 74
     0
 42
0.0000000001
 43
0.0000000001
 40
0.0
 40
0.0
 40
0.0
 40
0.0
 40
1.0
 40
1.0
 40
1.0
 40
2.0
 40
2.0
 40
2.0
 40
3.0
 40
3.0
 40
3.0
 40
4.0
 40
4.0
 40
4.0
 40
4.0
 10
265.5000731758125
 20
-90.00001896621528
 30
0.0
 10
265.5000731758125
 20
-90.8283921756436
 30
0.0
 10
264.8282795561888
 20
-91.50001354049306
 30
0.0
 10
264.0000786015347
 20
-91.50001354049306
 30
0.0
 10
263.1718776468807
 20
-91.50001354049306
 30
0.0
 10
262.5000840272569
 20
-90.8283921756436
 30
0.0
 10
262.5000840272569
 20
-90.00001896621528
 30
0.0
 10
262.5000840272569
 20
-89.17164575678696
 30
0.0
 10
263.1718776468807
 20
-88.5000243919375
 30
0.0
 10
264.0000786015347
 20
-88.5000243919375
 30
0.0
 10
264.8282795561888
 20
-88.5000243919375
 30
0.0
 10
265.5000731758125
 20
-89.17164575678696
 30
0.0
 10
265.5000731758125
 20
-90.00001896621528
 30
0.0
  0
POLYLINE
  5
4F
330
1F
100
AcDbEntity
  8
Outine
370
     0
100
AcDb2dPolyline
 66
     1
 10
0.0
 20
0.0
 30
0.0
  0
VERTEX
  5
50
330
4F
100
AcDbEntity
  8
Outine
370
     0
100
AcDbVertex
100
AcDb2dVertex
 10
182.1149820508254
 20
-73.72263181750685
 30
0.0
  0
VERTEX
  5
51
330
4F
100
AcDbEntity
  8
Outine
370
     0
100
AcDbVertex
100
AcDb2dVertex
 10
179.2042208753379
 20
-60.02906628273579
 30
0.0
  0
VERTEX
  5
52
330
4F
100
AcDbEntity
  8
Outine
370
     0
100
AcDbVertex
100
AcDb2dVertex
 10
192.8981309196574
 20
-57.1183051072482
 30
0.0
  0
VERTEX
  5
53
330
4F
100
AcDbEntity
  8
Outine
370
     0
100
AcDbVertex
100
AcDb2dVertex
 10
195.808892095145
 20
-70.81221515156778
 30
0.0
  0
VERTEX
  5
54
330
4F
100
AcDbEntity
  8
Outine
370
     0
100
AcDbVertex
100
AcDb2dVertex
 10
182.1149820508254
 20
-73.72263181750685
 30
0.0
  0
SEQEND
  5
55
330
4F
100
AcDbEntity
  8
Outine
370
     0
  0
POLYLINE
  5
56
330
1F
100
AcDbEntity
  8
Outine
370
     0
100
AcDb2dPolyline
 66
     1
 10
0.0
 20
0.0
 30
0.0
  0
VERTEX
  5
57
330
56
100
AcDbEntity
  8
Outine
370
     0
100
AcDbVertex
100
AcDb2dVertex
 10
190.4528021442271
 20
-91.42628849710871
 30
0.0
  0
VERTEX
  5
58
330
56
100
AcDbEntity
  8
Outine
370
     0
100
AcDbVertex
100
AcDb2dVertex
 10
176.758547590359
 20
-94.33670516304777
 30
0.0
  0
VERTEX
  5
59
330
56
100
AcDbEntity
  8
Outine
370
     0
100
AcDbVertex
100
AcDb2dVertex
 10
173.8481309244199
 20
-80.64313962827671
 30
0.0
  0
VERTEX
  5
5A
330
56
100
AcDbEntity
  8
Outine
370
     0
100
AcDbVertex
100
AcDb2dVertex
 10
187.5420409687395
 20
-77.73272296233766
 30
0.0
  0
VERTEX
  5
5B
330
56
100
AcDbEntity
  8
Outine
370
     0
100
AcDbVertex
100
AcDb2dVertex
 10
190.4528021442271
 20
-91.42628849710871
 30
0.0
  0
SEQEND
  5
5C
330
56
100
AcDbEntity
  8
Outine
370
     0
  0
POLYLINE
  5
5D
330
1F
100
AcDbEntity
  8
Outine
370
     0
100
AcDb2dPolyline
 66
     1
 10
0.0
 20
0.0
 30
0.0
  0
VERTEX
  5
5E
330
5D
100
AcDbEntity
  8
Outine
370
     0
100
AcDbVertex
100
AcDb2dVertex
 10
173.4960421658274
 20
-56.07943656367112
 30
0.0
  0
VERTEX
  5
5F
330
5D
100
AcDbEntity
  8
Outine
370
     0
100
AcDbVertex
100
AcDb2dVertex
 10
170.5852809903398
 20
-42.38535426457727
 30
0.0
  0
VERTEX
  5
60
330
5D
100
AcDbEntity
  8
Outine
370
     0
100
AcDbVertex
100
AcDb2dVertex
 10
184.2795355442079
 20
-39.47459308908969
 30
0.0
  0
VERTEX
  5
61
330
5D
100
AcDbEntity
  8
Outine
370
     0
100
AcDbVertex
100
AcDb2dVertex
 10
187.1902967196955
 20
-53.16850313340927
 30
0.0
  0
VERTEX
  5
62
330
5D
100
AcDbEntity
  8
Outine
370
     0
100
AcDbVertex
100
AcDb2dVertex
 10
173.4960421658274
 20
-56.07943656367112
 30
0.0
  0
SEQEND
  5
63
330
5D
100
AcDbEntity
  8
Outine
370
     0
  0
SPLINE
  5
64
330
1F
100
AcDbEntity
  8
Outine
370
     0
100
AcDbSpline
210
0.0
220
0.0
230
1.0
 70
    11
 71
     3
 72
    17
 73
    13
 74
     0
 42
0.0000000001
 43
0.0000000001
 40
0.0
 40
0.0
 40
0.0
 40
0.0
 40
1.0
 40
1.0
 40
1.0
 40
2.0
 40
2.0
 40
2.0
 40
3.0
 40
3.0
 40
3.0
 40
4.0
 40
4.0
 40
4.0
 40
4.0
 10
176.499993174191
 20
-59.99995522588543
 30
0.0
 10
176.499993174191
 20
-60.82832843531376
 30
0.0
 10
175.8281995545673
 20
-61.49994980016321
 30
0.0
 10
174.9999985999132
 20
-61.49994980016321
 30
0.0
 10
174.1717976452591
 20
-61.49994980016321
 30
0.0
 10
173.5000040256354
 20
-60.82832843531376
 30
0.0
 10
173.5000040256354
 20
-59.99995522588543
 30
0.0
 10
173.5000040256354
 20
-59.17158201645711
 30
0.0
 10
174.1717976452591
 20
-58.49996065160765
 30
0.0
 10
174.9999985999132
 20
-58.49996065160765
 30
0.0
 10
175.8281995545673
 20
-58.49996065160765
 30
0.0
 10
176.499993174191
 20
-59.17158201645711
 30
0.0
 10
176.499993174191
 20
-59.99995522588543
 30
0.0
  0
POLYLINE
  5
65
330
1F
100
AcDbEntity
  8
Outine
370
     0
100
AcDb2dPolyline
 66
     1
 10
0.0
 20
0.0
 30
0.0
  0
VERTEX
  5
66
330
65
100
AcDbEntity
  8
Outine
370
     0
100
AcDbVertex
100
AcDb2dVertex
 10
178.8524766262938
 20
-35.46536321813019
 30
0.0
  0
VERTEX
  5
67
330
65
100
AcDbEntity
  8
Outine
370
     0
100
AcDbVertex
100
AcDb2dVertex
 10
175.9417154508062
 20
-21.77128091903635
 30
0.0
  0
VERTEX
  5
68
330
65
100
AcDbEntity
  8
Outine
370
     0
100
AcDbVertex
100
AcDb2dVertex
 10
189.6359700046744
 20
-18.86051974354876
 30
0.0
  0
VERTEX
  5
69
330
65
100
AcDbEntity
  8
Outine
370
     0
100
AcDbVertex
100
AcDb2dVertex
 10
192.5467311801619
 20
-32.5546020426426
 30
0.0
  0
VERTEX
  5
6A
330
65
100
AcDbEntity
  8
Outine
370
     0
100
AcDbVertex
100
AcDb2dVertex
 10
178.8524766262938
 20
-35.46536321813019
 30
0.0
  0
SEQEND
  5
6B
330
65
100
AcDbEntity
  8
Outine
370
     0
  0
POLYLINE
  5
6C
330
1F
100
AcDbEntity
  8
Outine
370
     0
100
AcDb2dPolyline
 66
     1
 10
0.0
 20
0.0
 30
0.0
  0
VERTEX
  5
6D
330
6C
100
AcDbEntity
  8
Outine
370
     0
100
AcDbVertex
100
AcDb2dVertex
 10
192.1298746264467
 20
-52.11861028427938
 30
0.0
  0
VERTEX
  5
6E
330
6C
100
AcDbEntity
  8
Outine
370
     0
100
AcDbVertex
100
AcDb2dVertex
 10
189.2191134509591
 20
-38.42452798518553
 30
0.0
  0
VERTEX
  5
6F
330
6C
100
AcDbEntity
  8
Outine
370
     0
100
AcDbVertex
100
AcDb2dVertex
 10
202.9133680048272
 20
-35.51376680969795
 30
0.0
  0
VERTEX
  5
70
330
6C
100
AcDbEntity
  8
Outine
370
     0
100
AcDbVertex
100
AcDb2dVertex
 10
205.8241291803148
 20
-49.20784910879179
 30
0.0
  0
VERTEX
  5
71
330
6C
100
AcDbEntity
  8
Outine
370
     0
100
AcDbVertex
100
AcDb2dVertex
 10
192.1298746264467
 20
-52.11861028427938
 30
0.0
  0
SEQEND
  5
72
330
6C
100
AcDbEntity
  8
Outine
370
     0
  0
POLYLINE
  5
73
330
1F
100
AcDbEntity
  8
Outine
370
     0
100
AcDb2dPolyline
 66
     1
 10
0.0
 20
0.0
 30
0.0
  0
VERTEX
  5
74
330
73
100
AcDbEntity
  8
Outine
370
     0
100
AcDbVertex
100
AcDb2dVertex
 10
211.5319633802767
 20
-53.15747882785647
 30
0.0
  0
VERTEX
  5
75
330
73
100
AcDbEntity
  8
Outine
370
     0
100
AcDbVertex
100
AcDb2dVertex
 10
214.4423800462158
 20
-66.85138887217605
 30
0.0
  0
VERTEX
  5
76
330
73
100
AcDbEntity
  8
Outine
370
     0
100
AcDbVertex
100
AcDb2dVertex
 10
200.7484700018962
 20
-69.76215004766364
 30
0.0
  0
VERTEX
  5
77
330
73
100
AcDbEntity
  8
Outine
370
     0
100
AcDbVertex
100
AcDb2dVertex
 10
197.8377088264086
 20
-56.06824000334405
 30
0.0
  0
VERTEX
  5
78
330
73
100
AcDbEntity
  8
Outine
370
     0
100
AcDbVertex
100
AcDb2dVertex
 10
211.5319633802767
 20
-53.15747882785647
 30
0.0
  0
SEQEND
  5
79
330
73
100
AcDbEntity
  8
Outine
370
     0
  0
POLYLINE
  5
7A
330
1F
100
AcDbEntity
  8
Outine
370
     0
100
AcDb2dPolyline
 66
     1
 10
0.0
 20
0.0
 30
0.0
  0
VERTEX
  5
7B
330
7A
100
AcDbEntity
  8
Outine
370
     0
100
AcDbVertex
100
AcDb2dVertex
 10
210.763707087066
 20
-48.1579562596619
 30
0.0
  0
VERTEX
  5
7C
330
7A
100
AcDbEntity
  8
Outine
370
     0
100
AcDbVertex
100
AcDb2dVertex
 10
207.8529459115784
 20
-34.46387396056806
 30
0.0
  0
VERTEX
  5
7D
330
7A
100
AcDbEntity
  8
Outine
370
     0
100
AcDbVertex
100
AcDb2dVertex
 10
221.546855955898
 20
-31.55311278508047
 30
0.0
  0
VERTEX
  5
7E
330
7A
100
AcDbEntity
  8
Outine
370
     0
100
AcDbVertex
100
AcDb2dVertex
 10
224.4576171313856
 20
-45.24719508417432
 30
0.0
  0
VERTEX
  5
7F
330
7A
100
AcDbEntity
  8
Outine
370
     0
100
AcDbVertex
100
AcDb2dVertex
 10
210.763707087066
 20
-48.1579562596619
 30
0.0
  0
SEQEND
  5
80
330
7A
100
AcDbEntity
  8
Outine
370
     0
  0
POLYLINE
  5
81
330
1F
100
AcDbEntity
  8
Outine
370
     0
100
AcDb2dPolyline
 66
     1
 10
0.0
 20
0.0
 30
0.0
  0
VERTEX
  5
82
330
81
100
AcDbEntity
  8
Outine
370
     0
100
AcDbVertex
100
AcDb2dVertex
 10
230.1654513313475
 20
-49.19682480323899
 30
0.0
  0
VERTEX
  5
83
330
81
100
AcDbEntity
  8
Outine
370
     0
100
AcDbVertex
100
AcDb2dVertex
 10
233.0762125068351
 20
-62.89056259278431
 30
0.0
  0
VERTEX
  5
84
330
81
100
AcDbEntity
  8
Outine
370
     0
100
AcDbVertex
100
AcDb2dVertex
 10
219.3823024625156
 20
-65.8013237682719
 30
0.0
  0
VERTEX
  5
85
330
81
100
AcDbEntity
  8
Outine
370
     0
100
AcDbVertex
100
AcDb2dVertex
 10
216.4715412870279
 20
-52.10758597872658
 30
0.0
  0
VERTEX
  5
86
330
81
100
AcDbEntity
  8
Outine
370
     0
100
AcDbVertex
100
AcDb2dVertex
 10
230.1654513313475
 20
-49.19682480323899
 30
0.0
  0
SEQEND
  5
87
330
81
100
AcDbEntity
  8
Outine
370
     0
  0
POLYLINE
  5
88
330
1F
100
AcDbEntity
  8
Outine
370
     0
100
AcDb2dPolyline
 66
     1
 10
0.0
 20
0.0
 30
0.0
  0
VERTEX
  5
89
330
88
100
AcDbEntity
  8
Outine
370
     0
100
AcDbVertex
100
AcDb2dVertex
 10
248.7992837919668
 20
-45.23617077862151
 30
0.0
  0
VERTEX
  5
8A
330
88
100
AcDbEntity
  8
Outine
370
     0
100
AcDbVertex
100
AcDb2dVertex
 10
251.7100449674545
 20
-58.92990856816683
 30
0.0
  0
VERTEX
  5
8B
330
88
100
AcDbEntity
  8
Outine
370
     0
100
AcDbVertex
100
AcDb2dVertex
 10
238.0151013944893
 20
-61.84084199842868
 30
0.0
  0
VERTEX
  5
8C
330
88
100
AcDbEntity
  8
Outine
370
     0
100
AcDbVertex
100
AcDb2dVertex
 10
235.1043402190017
 20
-48.14710420888336
 30
0.0
  0
VERTEX
  5
8D
330
88
100
AcDbEntity
  8
Outine
370
     0
100
AcDbVertex
100
AcDb2dVertex
 10
248.7992837919668
 20
-45.23617077862151
 30
0.0
  0
SEQEND
  5
8E
330
88
100
AcDbEntity
  8
Outine
370
     0
  0
POLYLINE
  5
8F
330
1F
100
AcDbEntity
  8
Outine
370
     0
100
AcDb2dPolyline
 66
     1
 10
0.0
 20
0.0
 30
0.0
  0
VERTEX
  5
90
330
8F
100
AcDbEntity
  8
Outine
370
     0
100
AcDbVertex
100
AcDb2dVertex
 10
248.1106092044654
 20
-40.26541475772878
 30
0.0
  0
VERTEX
  5
91
330
8F
100
AcDbEntity
  8
Outine
370
     0
100
AcDbVertex
100
AcDb2dVertex
 10
248.1106092044654
 20
-26.26540797954476
 30
0.0
  0
VERTEX
  5
92
330
8F
100
AcDbEntity
  8
Outine
370
     0
100
AcDbVertex
100
AcDb2dVertex
 10
262.1107882374237
 20
-26.26540797954476
 30
0.0
  0
VERTEX
  5
93
330
8F
100
AcDbEntity
  8
Outine
370
     0
100
AcDbVertex
100
AcDb2dVertex
 10
262.1107882374237
 20
-40.26541475772878
 30
0.0
  0
VERTEX
  5
94
330
8F
100
AcDbEntity
  8
Outine
370
     0
100
AcDbVertex
100
AcDb2dVertex
 10
248.1106092044654
 20
-40.26541475772878
 30
0.0
  0
SEQEND
  5
95
330
8F
100
AcDbEntity
  8
Outine
370
     0
  0
POLYLINE
  5
96
330
1F
100
AcDbEntity
  8
Outine
370
     0
100
AcDb2dPolyline
 66
     1
 10
0.0
 20
0.0
 30
0.0
  0
VERTEX
  5
97
330
96
100
AcDbEntity
  8
Outine
370
     0
100
AcDbVertex
100
AcDb2dVertex
 10
229.3971950381368
 20
-44.19712998027016
 30
0.0
  0
VERTEX
  5
98
330
96
100
AcDbEntity
  8
Outine
370
     0
100
AcDbVertex
100
AcDb2dVertex
 10
226.4864338626492
 20
-30.50321993595059
 30
0.0
  0
VERTEX
  5
99
330
96
100
AcDbEntity
  8
Outine
370
     0
100
AcDbVertex
100
AcDb2dVertex
 10
240.1806884165173
 20
-27.59228650568874
 30
0.0
  0
VERTEX
  5
9A
330
96
100
AcDbEntity
  8
Outine
370
     0
100
AcDbVertex
100
AcDb2dVertex
 10
243.0914495920049
 20
-41.28636880478258
 30
0.0
  0
VERTEX
  5
9B
330
96
100
AcDbEntity
  8
Outine
370
     0
100
AcDbVertex
100
AcDb2dVertex
 10
229.3971950381368
 20
-44.19712998027016
 30
0.0
  0
SEQEND
  5
9C
330
96
100
AcDbEntity
  8
Outine
370
     0
  0
POLYLINE
  5
9D
330
1F
100
AcDbEntity
  8
Outine
370
     0
100
AcDb2dPolyline
 66
     1
 10
0.0
 20
0.0
 30
0.0
  0
VERTEX
  5
9E
330
9D
100
AcDbEntity
  8
Outine
370
     0
100
AcDbVertex
100
AcDb2dVertex
 10
243.4431938410489
 20
-65.85024412416244
 30
0.0
  0
VERTEX
  5
9F
330
9D
100
AcDbEntity
  8
Outine
370
     0
100
AcDbVertex
100
AcDb2dVertex
 10
246.353610506988
 20
-79.5438096589335
 30
0.0
  0
VERTEX
  5
A0
330
9D
100
AcDbEntity
  8
Outine
370
     0
100
AcDbVertex
100
AcDb2dVertex
 10
232.660044972217
 20
-82.45457083442108
 30
0.0
  0
VERTEX
  5
A1
330
9D
100
AcDbEntity
  8
Outine
370
     0
100
AcDbVertex
100
AcDb2dVertex
 10
229.7492837967293
 20
-68.76100529965002
 30
0.0
  0
VERTEX
  5
A2
330
9D
100
AcDbEntity
  8
Outine
370
     0
100
AcDbVertex
100
AcDb2dVertex
 10
243.4431938410489
 20
-65.85024412416244
 30
0.0
  0
SEQEND
  5
A3
330
9D
100
AcDbEntity
  8
Outine
370
     0
  0
POLYLINE
  5
A4
330
1F
100
AcDbEntity
  8
Outine
370
     0
100
AcDb2dPolyline
 66
     1
 10
0.0
 20
0.0
 30
0.0
  0
VERTEX
  5
A5
330
A4
100
AcDbEntity
  8
Outine
370
     0
100
AcDbVertex
100
AcDb2dVertex
 10
250.8391248287833
 20
-84.86183130473941
 30
0.0
  0
VERTEX
  5
A6
330
A4
100
AcDbEntity
  8
Outine
370
     0
100
AcDbVertex
100
AcDb2dVertex
 10
252.8097194463462
 20
-98.72179495144803
 30
0.0
  0
VERTEX
  5
A7
330
A4
100
AcDbEntity
  8
Outine
370
     0
100
AcDbVertex
100
AcDb2dVertex
 10
238.9490667805405
 20
-100.6929063333337
 30
0.0
  0
VERTEX
  5
A8
330
A4
100
AcDbEntity
  8
Outine
370
     0
100
AcDbVertex
100
AcDb2dVertex
 10
236.9781276534291
 20
-86.83277043185083
 30
0.0
  0
VERTEX
  5
A9
330
A4
100
AcDbEntity
  8
Outine
370
     0
100
AcDbVertex
100
AcDb2dVertex
 10
250.8391248287833
 20
-84.86183130473941
 30
0.0
  0
SEQEND
  5
AA
330
A4
100
AcDbEntity
  8
Outine
370
     0
  0
POLYLINE
  5
AB
330
1F
100
AcDbEntity
  8
Outine
370
     0
100
AcDb2dPolyline
 66
     1
 10
0.0
 20
0.0
 30
0.0
  0
VERTEX
  5
AC
330
AB
100
AcDbEntity
  8
Outine
370
     0
100
AcDbVertex
100
AcDb2dVertex
 10
256.9114501310846
 20
-60.53790688590719
 30
0.0
  0
VERTEX
  5
AD
330
AB
100
AcDbEntity
  8
Outine
370
     0
100
AcDbVertex
100
AcDb2dVertex
 10
256.9114501310846
 20
-46.53824461727169
 30
0.0
  0
VERTEX
  5
AE
330
AB
100
AcDbEntity
  8
Outine
370
     0
100
AcDbVertex
100
AcDb2dVertex
 10
270.9112846544944
 20
-46.53824461727169
 30
0.0
  0
VERTEX
  5
AF
330
AB
100
AcDbEntity
  8
Outine
370
     0
100
AcDbVertex
100
AcDb2dVertex
 10
270.9112846544944
 20
-60.53790688590719
 30
0.0
  0
VERTEX
  5
B0
330
AB
100
AcDbEntity
  8
Outine
370
     0
100
AcDbVertex
100
AcDb2dVertex
 10
256.9114501310846
 20
-60.53790688590719
 30
0.0
  0
SEQEND
  5
B1
330
AB
100
AcDbEntity
  8
Outine
370
     0
  0
POLYLINE
  5
B2
330
1F
100
AcDbEntity
  8
Outine
370
     0
100
AcDb2dPolyline
 66
     1
 10
0.0
 20
0.0
 30
0.0
  0
VERTEX
  5
B3
330
B2
100
AcDbEntity
  8
Outine
370
     0
100
AcDbVertex
100
AcDb2dVertex
 10
297.3923556114158
 20
-60.53790688590719
 30
0.0
  0
VERTEX
  5
B4
330
B2
100
AcDbEntity
  8
Outine
370
     0
100
AcDbVertex
100
AcDb2dVertex
 10
297.3923556114158
 20
-46.53824461727169
 30
0.0
  0
VERTEX
  5
B5
330
B2
100
AcDbEntity
  8
Outine
370
     0
100
AcDbVertex
100
AcDb2dVertex
 10
311.3921901348256
 20
-46.53824461727169
 30
0.0
  0
VERTEX
  5
B6
330
B2
100
AcDbEntity
  8
Outine
370
     0
100
AcDbVertex
100
AcDb2dVertex
 10
311.3921901348256
 20
-60.53790688590719
 30
0.0
  0
VERTEX
  5
B7
330
B2
100
AcDbEntity
  8
Outine
370
     0
100
AcDbVertex
100
AcDb2dVertex
 10
297.3923556114158
 20
-60.53790688590719
 30
0.0
  0
SEQEND
  5
B8
330
B2
100
AcDbEntity
  8
Outine
370
     0
  0
POLYLINE
  5
B9
330
1F
100
AcDbEntity
  8
Outine
370
     0
100
AcDb2dPolyline
 66
     1
 10
0.0
 20
0.0
 30
0.0
  0
VERTEX
  5
BA
330
B9
100
AcDbEntity
  8
Outine
370
     0
100
AcDbVertex
100
AcDb2dVertex
 10
306.0254203879034
 20
-65.59031166980034
 30
0.0
  0
VERTEX
  5
BB
330
B9
100
AcDbEntity
  8
Outine
370
     0
100
AcDbVertex
100
AcDb2dVertex
 10
306.0254203879034
 20
-79.58980168366158
 30
0.0
  0
VERTEX
  5
BC
330
B9
100
AcDbEntity
  8
Outine
370
     0
100
AcDbVertex
100
AcDb2dVertex
 10
292.0255858644936
 20
-79.58980168366158
 30
0.0
  0
VERTEX
  5
BD
330
B9
100
AcDbEntity
  8
Outine
370
     0
100
AcDbVertex
100
AcDb2dVertex
 10
292.0255858644936
 20
-65.59031166980034
 30
0.0
  0
VERTEX
  5
BE
330
B9
100
AcDbEntity
  8
Outine
370
     0
100
AcDbVertex
100
AcDb2dVertex
 10
306.0254203879034
 20
-65.59031166980034
 30
0.0
  0
SEQEND
  5
BF
330
B9
100
AcDbEntity
  8
Outine
370
     0
  0
POLYLINE
  5
C0
330
1F
100
AcDbEntity
  8
Outine
370
     0
100
AcDb2dPolyline
 66
     1
 10
0.0
 20
0.0
 30
0.0
  0
VERTEX
  5
C1
330
C0
100
AcDbEntity
  8
Outine
370
     0
100
AcDbVertex
100
AcDb2dVertex
 10
299.966875467543
 20
-41.48962943841232
 30
0.0
  0
VERTEX
  5
C2
330
C0
100
AcDbEntity
  8
Outine
370
     0
100
AcDbVertex
100
AcDb2dVertex
 10
285.9666964345847
 20
-41.48962943841232
 30
0.0
  0
VERTEX
  5
C3
330
C0
100
AcDbEntity
  8
Outine
370
     0
100
AcDbVertex
100
AcDb2dVertex
 10
285.9666964345847
 20
-27.48962266022829
 30
0.0
  0
VERTEX
  5
C4
330
C0
100
AcDbEntity
  8
Outine
370
     0
100
AcDbVertex
100
AcDb2dVertex
 10
299.966875467543
 20
-27.48962266022829
 30
0.0
  0
VERTEX
  5
C5
330
C0
100
AcDbEntity
  8
Outine
370
     0
100
AcDbVertex
100
AcDb2dVertex
 10
299.966875467543
 20
-41.48962943841232
 30
0.0
  0
SEQEND
  5
C6
330
C0
100
AcDbEntity
  8
Outine
370
     0
  0
POLYLINE
  5
C7
330
1F
100
AcDbEntity
  8
Outine
370
     0
100
AcDb2dPolyline
 66
     1
 10
0.0
 20
0.0
 30
0.0
  0
VERTEX
  5
C8
330
C7
100
AcDbEntity
  8
Outine
370
     0
100
AcDbVertex
100
AcDb2dVertex
 10
289.9612846497319
 20
-46.53824461727169
 30
0.0
  0
VERTEX
  5
C9
330
C7
100
AcDbEntity
  8
Outine
370
     0
100
AcDbVertex
100
AcDb2dVertex
 10
289.9612846497319
 20
-60.53790688590719
 30
0.0
  0
VERTEX
  5
CA
330
C7
100
AcDbEntity
  8
Outine
370
     0
100
AcDbVertex
100
AcDb2dVertex
 10
275.9614501263222
 20
-60.53790688590719
 30
0.0
  0
VERTEX
  5
CB
330
C7
100
AcDbEntity
  8
Outine
370
     0
100
AcDbVertex
100
AcDb2dVertex
 10
275.9614501263222
 20
-46.53824461727169
 30
0.0
  0
VERTEX
  5
CC
330
C7
100
AcDbEntity
  8
Outine
370
     0
100
AcDbVertex
100
AcDb2dVertex
 10
289.9612846497319
 20
-46.53824461727169
 30
0.0
  0
SEQEND
  5
CD
330
C7
100
AcDbEntity
  8
Outine
370
     0
  0
POLYLINE
  5
CE
330
1F
100
AcDbEntity
  8
Outine
370
     0
100
AcDb2dPolyline
 66
     1
 10
0.0
 20
0.0
 30
0.0
  0
VERTEX
  5
CF
330
CE
100
AcDbEntity
  8
Outine
370
     0
100
AcDbVertex
100
AcDb2dVertex
 10
284.5945149028097
 20
-65.59031166980034
 30
0.0
  0
VERTEX
  5
D0
330
CE
100
AcDbEntity
  8
Outine
370
     0
100
AcDbVertex
100
AcDb2dVertex
 10
284.5945149028097
 20
-79.58980168366158
 30
0.0
  0
VERTEX
  5
D1
330
CE
100
AcDbEntity
  8
Outine
370
     0
100
AcDbVertex
100
AcDb2dVertex
 10
270.5946803794
 20
-79.58980168366158
 30
0.0
  0
VERTEX
  5
D2
330
CE
100
AcDbEntity
  8
Outine
370
     0
100
AcDbVertex
100
AcDb2dVertex
 10
270.5946803794
 20
-65.59031166980034
 30
0.0
  0
VERTEX
  5
D3
330
CE
100
AcDbEntity
  8
Outine
370
     0
100
AcDbVertex
100
AcDb2dVertex
 10
284.5945149028097
 20
-65.59031166980034
 30
0.0
  0
SEQEND
  5
D4
330
CE
100
AcDbEntity
  8
Outine
370
     0
  0
POLYLINE
  5
D5
330
1F
100
AcDbEntity
  8
Outine
370
     0
100
AcDb2dPolyline
 66
     1
 10
0.0
 20
0.0
 30
0.0
  0
VERTEX
  5
D6
330
D5
100
AcDbEntity
  8
Outine
370
     0
100
AcDbVertex
100
AcDb2dVertex
 10
280.9168754723055
 20
-41.48962943841232
 30
0.0
  0
VERTEX
  5
D7
330
D5
100
AcDbEntity
  8
Outine
370
     0
100
AcDbVertex
100
AcDb2dVertex
 10
266.9166964393472
 20
-41.48962943841232
 30
0.0
  0
VERTEX
  5
D8
330
D5
100
AcDbEntity
  8
Outine
370
     0
100
AcDbVertex
100
AcDb2dVertex
 10
266.9166964393472
 20
-27.48962266022829
 30
0.0
  0
VERTEX
  5
D9
330
D5
100
AcDbEntity
  8
Outine
370
     0
100
AcDbVertex
100
AcDb2dVertex
 10
280.9168754723055
 20
-27.48962266022829
 30
0.0
  0
VERTEX
  5
DA
330
D5
100
AcDbEntity
  8
Outine
370
     0
100
AcDbVertex
100
AcDb2dVertex
 10
280.9168754723055
 20
-41.48962943841232
 30
0.0
  0
SEQEND
  5
DB
330
D5
100
AcDbEntity
  8
Outine
370
     0
  0
SPLINE
  5
DC
330
1F
100
AcDbEntity
  8
Outine
370
     0
100
AcDbSpline
210
0.0
220
0.0
230
1.0
 70
    11
 71
     3
 72
    23
 73
    19
 74
     0
 42
0.0000000001
 43
0.0000000001
 40
0.0
 40
0.0
 40
0.0
 40
0.0
 40
1.0
 40
1.0
 40
1.0
 40
2.0
 40
2.0
 40
2.0
 40
3.0
 40
3.0
 40
3.0
 40
4.0
 40
4.0
 40
4.0
 40
5.0
 40
5.0
 40
5.0
 40
6.0
 40
6.0
 40
6.0
 40
6.0
 10
271.0001681180138
 20
-88.5000243919375
 30
0.0
 10
271.0001681180138
 20
-88.5000243919375
 30
0.0
 10
310.4999104041459
 20
-88.5000243919375
 30
0.0
 10
310.4999104041459
 20
-88.5000243919375
 30
0.0
 10
311.3284558683484
 20
-88.5000243919375
 30
0.0
 10
311.9999049784237
 20
-89.17164575678696
 30
0.0
 10
311.9999049784237
 20
-90.00001896621528
 30
0.0
 10
311.9999049784237
 20
-90.8283921756436
 30
0.0
 10
311.3284558683484
 20
-91.50001354049306
 30
0.0
 10
310.4999104041459
 20
-91.50001354049306
 30
0.0
 10
310.4999104041459
 20
-91.50001354049306
 30
0.0
 10
271.0001681180138
 20
-91.50001354049306
 30
0.0
 10
271.0001681180138
 20
-91.50001354049306
 30
0.0
 10
270.1716226538113
 20
-91.50001354049306
 30
0.0
 10
269.5001735437361
 20
-90.8283921756436
 30
0.0
 10
269.5001735437361
 20
-90.00001896621528
 30
0.0
 10
269.5001735437361
 20
-89.17164575678696
 30
0.0
 10
270.1716226538113
 20
-88.5000243919375
 30
0.0
 10
271.0001681180138
 20
-88.5000243919375
 30
0.0
  0
POLYLINE
  5
DD
330
1F
100
AcDbEntity
  8
Outine
370
     0
100
AcDb2dPolyline
 66
     1
 10
0.0
 20
0.0
 30
0.0
  0
VERTEX
  5
DE
330
DD
100
AcDbEntity
  8
Outine
370
     0
100
AcDbVertex
100
AcDb2dVertex
 10
293.7088595185867
 20
-8.43962266499079
 30
0.0
  0
VERTEX
  5
DF
330
DD
100
AcDbEntity
  8
Outine
370
     0
100
AcDbVertex
100
AcDb2dVertex
 10
307.7090385515449
 20
-8.43962266499079
 30
0.0
  0
VERTEX
  5
E0
330
DD
100
AcDbEntity
  8
Outine
370
     0
100
AcDbVertex
100
AcDb2dVertex
 10
307.7090385515449
 20
-22.43962944317482
 30
0.0
  0
VERTEX
  5
E1
330
DD
100
AcDbEntity
  8
Outine
370
     0
100
AcDbVertex
100
AcDb2dVertex
 10
293.7088595185867
 20
-22.43962944317482
 30
0.0
  0
VERTEX
  5
E2
330
DD
100
AcDbEntity
  8
Outine
370
     0
100
AcDbVertex
100
AcDb2dVertex
 10
293.7088595185867
 20
-8.43962266499079
 30
0.0
  0
SEQEND
  5
E3
330
DD
100
AcDbEntity
  8
Outine
370
     0
  0
POLYLINE
  5
E4
330
1F
100
AcDbEntity
  8
Outine
370
     0
100
AcDb2dPolyline
 66
     1
 10
0.0
 20
0.0
 30
0.0
  0
VERTEX
  5
E5
330
E4
100
AcDbEntity
  8
Outine
370
     0
100
AcDbVertex
100
AcDb2dVertex
 10
272.277954033493
 20
-8.43962266499079
 30
0.0
  0
VERTEX
  5
E6
330
E4
100
AcDbEntity
  8
Outine
370
     0
100
AcDbVertex
100
AcDb2dVertex
 10
286.2781330664513
 20
-8.43962266499079
 30
0.0
  0
VERTEX
  5
E7
330
E4
100
AcDbEntity
  8
Outine
370
     0
100
AcDbVertex
100
AcDb2dVertex
 10
286.2781330664513
 20
-22.43962944317482
 30
0.0
  0
VERTEX
  5
E8
330
E4
100
AcDbEntity
  8
Outine
370
     0
100
AcDbVertex
100
AcDb2dVertex
 10
272.277954033493
 20
-22.43962944317482
 30
0.0
  0
VERTEX
  5
E9
330
E4
100
AcDbEntity
  8
Outine
370
     0
100
AcDbVertex
100
AcDb2dVertex
 10
272.277954033493
 20
-8.43962266499079
 30
0.0
  0
SEQEND
  5
EA
330
E4
100
AcDbEntity
  8
Outine
370
     0
  0
POLYLINE
  5
EB
330
1F
100
AcDbEntity
  8
Outine
370
     0
100
AcDb2dPolyline
 66
     1
 10
0.0
 20
0.0
 30
0.0
  0
VERTEX
  5
EC
330
EB
100
AcDbEntity
  8
Outine
370
     0
100
AcDbVertex
100
AcDb2dVertex
 10
253.4005533220665
 20
-5.99463839910898
 30
0.0
  0
VERTEX
  5
ED
330
EB
100
AcDbEntity
  8
Outine
370
     0
100
AcDbVertex
100
AcDb2dVertex
 10
267.4007323550248
 20
-5.99463839910898
 30
0.0
  0
VERTEX
  5
EE
330
EB
100
AcDbEntity
  8
Outine
370
     0
100
AcDbVertex
100
AcDb2dVertex
 10
267.4007323550248
 20
-19.99464517729301
 30
0.0
  0
VERTEX
  5
EF
330
EB
100
AcDbEntity
  8
Outine
370
     0
100
AcDbVertex
100
AcDb2dVertex
 10
253.4005533220665
 20
-19.99464517729301
 30
0.0
  0
VERTEX
  5
F0
330
EB
100
AcDbEntity
  8
Outine
370
     0
100
AcDbVertex
100
AcDb2dVertex
 10
253.4005533220665
 20
-5.99463839910898
 30
0.0
  0
SEQEND
  5
F1
330
EB
100
AcDbEntity
  8
Outine
370
     0
  0
POLYLINE
  5
F2
330
1F
100
AcDbEntity
  8
Outine
370
     0
100
AcDb2dPolyline
 66
     1
 10
0.0
 20
0.0
 30
0.0
  0
VERTEX
  5
F3
330
F2
100
AcDbEntity
  8
Outine
370
     0
100
AcDbVertex
100
AcDb2dVertex
 10
245.5371228769838
 20
-6.97838541492207
 30
0.0
  0
VERTEX
  5
F4
330
F2
100
AcDbEntity
  8
Outine
370
     0
100
AcDbVertex
100
AcDb2dVertex
 10
248.4478840524714
 20
-20.67246771401591
 30
0.0
  0
VERTEX
  5
F5
330
F2
100
AcDbEntity
  8
Outine
370
     0
100
AcDbVertex
100
AcDb2dVertex
 10
234.7536294986033
 20
-23.5832288895035
 30
0.0
  0
VERTEX
  5
F6
330
F2
100
AcDbEntity
  8
Outine
370
     0
100
AcDbVertex
100
AcDb2dVertex
 10
231.8428683231157
 20
-9.889146590409657
 30
0.0
  0
VERTEX
  5
F7
330
F2
100
AcDbEntity
  8
Outine
370
     0
100
AcDbVertex
100
AcDb2dVertex
 10
245.5371228769838
 20
-6.97838541492207
 30
0.0
  0
SEQEND
  5
F8
330
F2
100
AcDbEntity
  8
Outine
370
     0
  0
POLYLINE
  5
F9
330
1F
100
AcDbEntity
  8
Outine
370
     0
100
AcDb2dPolyline
 66
     1
 10
0.0
 20
0.0
 30
0.0
  0
VERTEX
  5
FA
330
F9
100
AcDbEntity
  8
Outine
370
     0
100
AcDbVertex
100
AcDb2dVertex
 10
226.9032904163645
 20
-10.93903943953955
 30
0.0
  0
VERTEX
  5
FB
330
F9
100
AcDbEntity
  8
Outine
370
     0
100
AcDbVertex
100
AcDb2dVertex
 10
229.8140515918521
 20
-24.63312173863339
 30
0.0
  0
VERTEX
  5
FC
330
F9
100
AcDbEntity
  8
Outine
370
     0
100
AcDbVertex
100
AcDb2dVertex
 10
216.1197970379839
 20
-27.54388291412097
 30
0.0
  0
VERTEX
  5
FD
330
F9
100
AcDbEntity
  8
Outine
370
     0
100
AcDbVertex
100
AcDb2dVertex
 10
213.2090358624964
 20
-13.84980061502713
 30
0.0
  0
VERTEX
  5
FE
330
F9
100
AcDbEntity
  8
Outine
370
     0
100
AcDbVertex
100
AcDb2dVertex
 10
226.9032904163645
 20
-10.93903943953955
 30
0.0
  0
SEQEND
  5
FF
330
F9
100
AcDbEntity
  8
Outine
370
     0
  0
SPLINE
  5
100
330
1F
100
AcDbEntity
  8
Outine
370
     0
100
AcDbSpline
210
0.0
220
0.0
230
1.0
 70
    11
 71
     3
 72
    17
 73
    13
 74
     0
 42
0.0000000001
 43
0.0000000001
 40
0.0
 40
0.0
 40
0.0
 40
0.0
 40
1.0
 40
1.0
 40
1.0
 40
2.0
 40
2.0
 40
2.0
 40
3.0
 40
3.0
 40
3.0
 40
4.0
 40
4.0
 40
4.0
 40
4.0
 10
199.0000840431319
 20
-5.999978297111117
 30
0.0
 10
199.828284997786
 20
-5.999978297111117
 30
0.0
 10
200.5000786174097
 20
-6.671599661960572
 30
0.0
 10
200.5000786174097
 20
-7.499972871388896
 30
0.0
 10
200.5000786174097
 20
-8.32834608081722
 30
0.0
 10
199.828284997786
 20
-8.999967445666675
 30
0.0
 10
199.0000840431319
 20
-8.999967445666675
 30
0.0
 10
198.1718830884779
 20
-8.999967445666675
 30
0.0
 10
197.5000894688542
 20
-8.32834608081722
 30
0.0
 10
197.5000894688542
 20
-7.499972871388896
 30
0.0
 10
197.5000894688542
 20
-6.671599661960572
 30
0.0
 10
198.1718830884779
 20
-5.999978297111117
 30
0.0
 10
199.0000840431319
 20
-5.999978297111117
 30
0.0
  0
POLYLINE
  5
101
330
1F
100
AcDbEntity
  8
Outine
370
     0
100
AcDb2dPolyline
 66
     1
 10
0.0
 20
0.0
 30
0.0
  0
VERTEX
  5
102
330
101
100
AcDbEntity
  8
Outine
370
     0
100
AcDbVertex
100
AcDb2dVertex
 10
208.2694579557451
 20
-14.89969346415702
 30
0.0
  0
VERTEX
  5
103
330
101
100
AcDbEntity
  8
Outine
370
     0
100
AcDbVertex
100
AcDb2dVertex
 10
211.1802191312327
 20
-28.59394801802512
 30
0.0
  0
VERTEX
  5
104
330
101
100
AcDbEntity
  8
Outine
370
     0
100
AcDbVertex
100
AcDb2dVertex
 10
197.4859645773646
 20
-31.50470919351271
 30
0.0
  0
VERTEX
  5
105
330
101
100
AcDbEntity
  8
Outine
370
     0
100
AcDbVertex
100
AcDb2dVertex
 10
194.575203401877
 20
-17.81062689441887
 30
0.0
  0
VERTEX
  5
106
330
101
100
AcDbEntity
  8
Outine
370
     0
100
AcDbVertex
100
AcDb2dVertex
 10
208.2694579557451
 20
-14.89969346415702
 30
0.0
  0
SEQEND
  5
107
330
101
100
AcDbEntity
  8
Outine
370
     0
  0
SPLINE
  5
108
330
1F
100
AcDbEntity
  8
Outine
370
     0
100
AcDbSpline
210
0.0
220
0.0
230
1.0
 70
    11
 71
     3
 72
    23
 73
    19
 74
     0
 42
0.0000000001
 43
0.0000000001
 40
0.0
 40
0.0
 40
0.0
 40
0.0
 40
1.0
 40
1.0
 40
1.0
 40
2.0
 40
2.0
 40
2.0
 40
3.0
 40
3.0
 40
3.0
 40
4.0
 40
4.0
 40
4.0
 40
5.0
 40
5.0
 40
5.0
 40
6.0
 40
6.0
 40
6.0
 40
6.0
 10
164.5000365799687
 20
-5.999978297111117
 30
0.0
 10
164.5000365799687
 20
-5.999978297111117
 30
0.0
 10
191.9999945266528
 20
-5.999978297111117
 30
0.0
 10
191.9999945266528
 20
-5.999978297111117
 30
0.0
 10
192.8283677360811
 20
-5.999978297111117
 30
0.0
 10
193.4999891009306
 20
-6.671599661960572
 30
0.0
 10
193.4999891009306
 20
-7.499972871388896
 30
0.0
 10
193.4999891009306
 20
-8.32834608081722
 30
0.0
 10
192.8283677360811
 20
-8.999967445666675
 30
0.0
 10
191.9999945266528
 20
-8.999967445666675
 30
0.0
 10
191.9999945266528
 20
-8.999967445666675
 30
0.0
 10
164.5000365799687
 20
-8.999967445666675
 30
0.0
 10
164.5000365799687
 20
-8.999967445666675
 30
0.0
 10
163.6716633705404
 20
-8.999967445666675
 30
0.0
 10
163.000042005691
 20
-8.32834608081722
 30
0.0
 10
163.000042005691
 20
-7.499972871388896
 30
0.0
 10
163.000042005691
 20
-6.671599661960572
 30
0.0
 10
163.6716633705404
 20
-5.999978297111117
 30
0.0
 10
164.5000365799687
 20
-5.999978297111117
 30
0.0
  0
SPLINE
  5
109
330
1F
100
AcDbEntity
  8
Outine
370
     0
100
AcDbSpline
210
0.0
220
0.0
230
1.0
 70
    11
 71
     3
 72
    23
 73
    19
 74
     0
 42
0.0000000001
 43
0.0000000001
 40
0.0
 40
0.0
 40
0.0
 40
0.0
 40
1.0
 40
1.0
 40
1.0
 40
2.0
 40
2.0
 40
2.0
 40
3.0
 40
3.0
 40
3.0
 40
4.0
 40
4.0
 40
4.0
 40
5.0
 40
5.0
 40
5.0
 40
6.0
 40
6.0
 40
6.0
 40
6.0
 10
155.9999524892118
 20
-7.499628361840371
 30
0.0
 10
155.9999524892118
 20
-6.671255152412048
 30
0.0
 10
156.6715738540613
 20
-5.999633787562592
 30
0.0
 10
157.4999470634896
 20
-5.999633787562592
 30
0.0
 10
158.3283202729179
 20
-5.999633787562592
 30
0.0
 10
158.9999416377674
 20
-6.671255152412048
 30
0.0
 10
158.9999416377674
 20
-7.499628361840371
 30
0.0
 10
158.9999416377674
 20
-7.499628361840371
 30
0.0
 10
158.9999416377674
 20
-13.00006781359026
 30
0.0
 10
158.9999416377674
 20
-13.00006781359026
 30
0.0
 10
158.9999416377674
 20
-13.82844102301858
 30
0.0
 10
158.3283202729179
 20
-14.50006238786804
 30
0.0
 10
157.4999470634896
 20
-14.50006238786804
 30
0.0
 10
156.6715738540613
 20
-14.50006238786804
 30
0.0
 10
155.9999524892118
 20
-13.82844102301858
 30
0.0
 10
155.9999524892118
 20
-13.00006781359026
 30
0.0
 10
155.9999524892118
 20
-13.00006781359026
 30
0.0
 10
155.9999524892118
 20
-7.499628361840371
 30
0.0
 10
155.9999524892118
 20
-7.499628361840371
 30
0.0
  0
SPLINE
  5
10A
330
1F
100
AcDbEntity
  8
Outine
370
     0
100
AcDbSpline
210
0.0
220
0.0
230
1.0
 70
    11
 71
     3
 72
    17
 73
    13
 74
     0
 42
0.0000000001
 43
0.0000000001
 40
0.0
 40
0.0
 40
0.0
 40
0.0
 40
1.0
 40
1.0
 40
1.0
 40
2.0
 40
2.0
 40
2.0
 40
3.0
 40
3.0
 40
3.0
 40
4.0
 40
4.0
 40
4.0
 40
4.0
 10
157.4999470634896
 20
-18.49999050101736
 30
0.0
 10
158.3281480181437
 20
-18.49999050101736
 30
0.0
 10
158.9999416377674
 20
-19.17161186586682
 30
0.0
 10
158.9999416377674
 20
-19.99998507529514
 30
0.0
 10
158.9999416377674
 20
-20.82835828472347
 30
0.0
 10
158.3281480181437
 20
-21.49997964957292
 30
0.0
 10
157.4999470634896
 20
-21.49997964957292
 30
0.0
 10
156.6717461088355
 20
-21.49997964957292
 30
0.0
 10
155.9999524892118
 20
-20.82835828472347
 30
0.0
 10
155.9999524892118
 20
-19.99998507529514
 30
0.0
 10
155.9999524892118
 20
-19.17161186586682
 30
0.0
 10
156.6717461088355
 20
-18.49999050101736
 30
0.0
 10
157.4999470634896
 20
-18.49999050101736
 30
0.0
  0
SPLINE
  5
10B
330
1F
100
AcDbEntity
  8
Outine
370
     0
100
AcDbSpline
210
0.0
220
0.0
230
1.0
 70
    11
 71
     3
 72
    23
 73
    19
 74
     0
 42
0.0000000001
 43
0.0000000001
 40
0.0
 40
0.0
 40
0.0
 40
0.0
 40
1.0
 40
1.0
 40
1.0
 40
2.0
 40
2.0
 40
2.0
 40
3.0
 40
3.0
 40
3.0
 40
4.0
 40
4.0
 40
4.0
 40
5.0
 40
5.0
 40
5.0
 40
6.0
 40
6.0
 40
6.0
 40
6.0
 10
121.9999606357326
 20
-5.999978297111117
 30
0.0
 10
121.9999606357326
 20
-5.999978297111117
 30
0.0
 10
150.5000298017847
 20
-5.999978297111117
 30
0.0
 10
150.5000298017847
 20
-5.999978297111117
 30
0.0
 10
151.3284030112131
 20
-5.999978297111117
 30
0.0
 10
152.0000243760625
 20
-6.671599661960572
 30
0.0
 10
152.0000243760625
 20
-7.499972871388896
 30
0.0
 10
152.0000243760625
 20
-8.32834608081722
 30
0.0
 10
151.3284030112131
 20
-8.999967445666675
 30
0.0
 10
150.5000298017847
 20
-8.999967445666675
 30
0.0
 10
150.5000298017847
 20
-8.999967445666675
 30
0.0
 10
121.9999606357326
 20
-8.999967445666675
 30
0.0
 10
121.9999606357326
 20
-8.999967445666675
 30
0.0
 10
121.1715874263043
 20
-8.999967445666675
 30
0.0
 10
120.4999660614549
 20
-8.32834608081722
 30
0.0
 10
120.4999660614549
 20
-7.499972871388896
 30
0.0
 10
120.4999660614549
 20
-6.671599661960572
 30
0.0
 10
121.1715874263043
 20
-5.999978297111117
 30
0.0
 10
121.9999606357326
 20
-5.999978297111117
 30
0.0
  0
POLYLINE
  5
10C
330
1F
100
AcDbEntity
  8
Outine
370
     0
100
AcDb2dPolyline
 66
     1
 10
0.0
 20
0.0
 30
0.0
  0
VERTEX
  5
10D
330
10C
100
AcDbEntity
  8
Outine
370
     0
100
AcDbVertex
100
AcDb2dVertex
 10
116.750324135309
 20
-70.81428220885893
 30
0.0
  0
VERTEX
  5
10E
330
10C
100
AcDbEntity
  8
Outine
370
     0
100
AcDbVertex
100
AcDb2dVertex
 10
119.6609130560223
 20
-57.12071667408788
 30
0.0
  0
VERTEX
  5
10F
330
10C
100
AcDbEntity
  8
Outine
370
     0
100
AcDbVertex
100
AcDb2dVertex
 10
133.3548231003419
 20
-60.03147784957547
 30
0.0
  0
VERTEX
  5
110
330
10C
100
AcDbEntity
  8
Outine
370
     0
100
AcDbVertex
100
AcDb2dVertex
 10
130.4442341796285
 20
-73.72504338434652
 30
0.0
  0
VERTEX
  5
111
330
10C
100
AcDbEntity
  8
Outine
370
     0
100
AcDbVertex
100
AcDb2dVertex
 10
116.750324135309
 20
-70.81428220885893
 30
0.0
  0
SEQEND
  5
112
330
10C
100
AcDbEntity
  8
Outine
370
     0
  0
POLYLINE
  5
113
330
1F
100
AcDbEntity
  8
Outine
370
     0
100
AcDb2dPolyline
 66
     1
 10
0.0
 20
0.0
 30
0.0
  0
VERTEX
  5
114
330
113
100
AcDbEntity
  8
Outine
370
     0
100
AcDbVertex
100
AcDb2dVertex
 10
138.7110853060341
 20
-80.6455511951164
 30
0.0
  0
VERTEX
  5
115
330
113
100
AcDbEntity
  8
Outine
370
     0
100
AcDbVertex
100
AcDb2dVertex
 10
135.8004963853207
 20
-94.33911672988745
 30
0.0
  0
VERTEX
  5
116
330
113
100
AcDbEntity
  8
Outine
370
     0
100
AcDbVertex
100
AcDb2dVertex
 10
122.1065863410011
 20
-91.42835555439986
 30
0.0
  0
VERTEX
  5
117
330
113
100
AcDbEntity
  8
Outine
370
     0
100
AcDbVertex
100
AcDb2dVertex
 10
125.0171752617145
 20
-77.7347900196288
 30
0.0
  0
VERTEX
  5
118
330
113
100
AcDbEntity
  8
Outine
370
     0
100
AcDbVertex
100
AcDb2dVertex
 10
138.7110853060341
 20
-80.6455511951164
 30
0.0
  0
SEQEND
  5
119
330
113
100
AcDbEntity
  8
Outine
370
     0
  0
SPLINE
  5
11A
330
1F
100
AcDbEntity
  8
Outine
370
     0
100
AcDbSpline
210
0.0
220
0.0
230
1.0
 70
    11
 71
     3
 72
    17
 73
    13
 74
     0
 42
0.0000000001
 43
0.0000000001
 40
0.0
 40
0.0
 40
0.0
 40
0.0
 40
1.0
 40
1.0
 40
1.0
 40
2.0
 40
2.0
 40
2.0
 40
3.0
 40
3.0
 40
3.0
 40
4.0
 40
4.0
 40
4.0
 40
4.0
 10
132.0000393007674
 20
-56.00002711273611
 30
0.0
 10
132.0000393007674
 20
-55.17165390330779
 30
0.0
 10
132.6718329203911
 20
-54.50003253845833
 30
0.0
 10
133.5000338750451
 20
-54.50003253845833
 30
0.0
 10
134.3282348296992
 20
-54.50003253845833
 30
0.0
 10
135.0000284493229
 20
-55.17165390330779
 30
0.0
 10
135.0000284493229
 20
-56.00002711273611
 30
0.0
 10
135.0000284493229
 20
-56.82840032216443
 30
0.0
 10
134.3282348296992
 20
-57.50002168701388
 30
0.0
 10
133.5000338750451
 20
-57.50002168701388
 30
0.0
 10
132.6718329203911
 20
-57.50002168701388
 30
0.0
 10
132.0000393007674
 20
-56.82840032216443
 30
0.0
 10
132.0000393007674
 20
-56.00002711273611
 30
0.0
  0
POLYLINE
  5
11B
330
1F
100
AcDbEntity
  8
Outine
370
     0
100
AcDb2dPolyline
 66
     1
 10
0.0
 20
0.0
 30
0.0
  0
VERTEX
  5
11C
330
11B
100
AcDbEntity
  8
Outine
370
     0
100
AcDbVertex
100
AcDb2dVertex
 10
129.7460855795427
 20
-54.10143499081492
 30
0.0
  0
VERTEX
  5
11D
330
11B
100
AcDbEntity
  8
Outine
370
     0
100
AcDbVertex
100
AcDb2dVertex
 10
116.0518310256745
 20
-51.19067381532734
 30
0.0
  0
VERTEX
  5
11E
330
11B
100
AcDbEntity
  8
Outine
370
     0
100
AcDbVertex
100
AcDb2dVertex
 10
118.9625922011621
 20
-37.49641926145923
 30
0.0
  0
VERTEX
  5
11F
330
11B
100
AcDbEntity
  8
Outine
370
     0
100
AcDbVertex
100
AcDb2dVertex
 10
132.6568467550302
 20
-40.40718043694682
 30
0.0
  0
VERTEX
  5
120
330
11B
100
AcDbEntity
  8
Outine
370
     0
100
AcDbVertex
100
AcDb2dVertex
 10
129.7460855795427
 20
-54.10143499081492
 30
0.0
  0
SEQEND
  5
121
330
11B
100
AcDbEntity
  8
Outine
370
     0
  0
POLYLINE
  5
122
330
1F
100
AcDbEntity
  8
Outine
370
     0
100
AcDb2dPolyline
 66
     1
 10
0.0
 20
0.0
 30
0.0
  0
VERTEX
  5
123
330
122
100
AcDbEntity
  8
Outine
370
     0
100
AcDbVertex
100
AcDb2dVertex
 10
129.3294012806017
 20
-34.53708223962962
 30
0.0
  0
VERTEX
  5
124
330
122
100
AcDbEntity
  8
Outine
370
     0
100
AcDbVertex
100
AcDb2dVertex
 10
132.2401624560893
 20
-20.84317219531004
 30
0.0
  0
VERTEX
  5
125
330
122
100
AcDbEntity
  8
Outine
370
     0
100
AcDbVertex
100
AcDb2dVertex
 10
145.9354505386029
 20
-23.75427788034616
 30
0.0
  0
VERTEX
  5
126
330
122
100
AcDbEntity
  8
Outine
370
     0
100
AcDbVertex
100
AcDb2dVertex
 10
143.0246893631154
 20
-37.44818792466573
 30
0.0
  0
VERTEX
  5
127
330
122
100
AcDbEntity
  8
Outine
370
     0
100
AcDbVertex
100
AcDb2dVertex
 10
129.3294012806017
 20
-34.53708223962962
 30
0.0
  0
SEQEND
  5
128
330
122
100
AcDbEntity
  8
Outine
370
     0
  0
SPLINE
  5
129
330
1F
100
AcDbEntity
  8
Outine
370
     0
100
AcDbSpline
210
0.0
220
0.0
230
1.0
 70
    11
 71
     3
 72
    17
 73
    13
 74
     0
 42
0.0000000001
 43
0.0000000001
 40
0.0
 40
0.0
 40
0.0
 40
0.0
 40
1.0
 40
1.0
 40
1.0
 40
2.0
 40
2.0
 40
2.0
 40
3.0
 40
3.0
 40
3.0
 40
4.0
 40
4.0
 40
4.0
 40
4.0
 10
115.0000433740278
 20
-5.999978297111117
 30
0.0
 10
115.8282443286818
 20
-5.999978297111117
 30
0.0
 10
116.5000379483055
 20
-6.671599661960572
 30
0.0
 10
116.5000379483055
 20
-7.499972871388896
 30
0.0
 10
116.5000379483055
 20
-8.32834608081722
 30
0.0
 10
115.8282443286818
 20
-8.999967445666675
 30
0.0
 10
115.0000433740278
 20
-8.999967445666675
 30
0.0
 10
114.1718424193737
 20
-8.999967445666675
 30
0.0
 10
113.50004879975
 20
-8.32834608081722
 30
0.0
 10
113.50004879975
 20
-7.499972871388896
 30
0.0
 10
113.50004879975
 20
-6.671599661960572
 30
0.0
 10
114.1718424193737
 20
-5.999978297111117
 30
0.0
 10
115.0000433740278
 20
-5.999978297111117
 30
0.0
  0
POLYLINE
  5
12A
330
1F
100
AcDbEntity
  8
Outine
370
     0
100
AcDb2dPolyline
 66
     1
 10
0.0
 20
0.0
 30
0.0
  0
VERTEX
  5
12B
330
12A
100
AcDbEntity
  8
Outine
370
     0
100
AcDbVertex
100
AcDb2dVertex
 10
113.6065022502442
 20
-16.8823459159183
 30
0.0
  0
VERTEX
  5
12C
330
12A
100
AcDbEntity
  8
Outine
370
     0
100
AcDbVertex
100
AcDb2dVertex
 10
127.3007568041123
 20
-19.79310709140589
 30
0.0
  0
VERTEX
  5
12D
330
12A
100
AcDbEntity
  8
Outine
370
     0
100
AcDbVertex
100
AcDb2dVertex
 10
124.3899956286247
 20
-33.48736164527399
 30
0.0
  0
VERTEX
  5
12E
330
12A
100
AcDbEntity
  8
Outine
370
     0
100
AcDbVertex
100
AcDb2dVertex
 10
110.6957410747566
 20
-30.57660046978641
 30
0.0
  0
VERTEX
  5
12F
330
12A
100
AcDbEntity
  8
Outine
370
     0
100
AcDbVertex
100
AcDb2dVertex
 10
113.6065022502442
 20
-16.8823459159183
 30
0.0
  0
SEQEND
  5
130
330
12A
100
AcDbEntity
  8
Outine
370
     0
  0
POLYLINE
  5
131
330
1F
100
AcDbEntity
  8
Outine
370
     0
100
AcDb2dPolyline
 66
     1
 10
0.0
 20
0.0
 30
0.0
  0
VERTEX
  5
132
330
131
100
AcDbEntity
  8
Outine
370
     0
100
AcDbVertex
100
AcDb2dVertex
 10
101.0274251049515
 20
-53.15989039469614
 30
0.0
  0
VERTEX
  5
133
330
131
100
AcDbEntity
  8
Outine
370
     0
100
AcDbVertex
100
AcDb2dVertex
 10
114.7213351492711
 20
-56.07065157018373
 30
0.0
  0
VERTEX
  5
134
330
131
100
AcDbEntity
  8
Outine
370
     0
100
AcDbVertex
100
AcDb2dVertex
 10
111.8105739737835
 20
-69.76421710495478
 30
0.0
  0
VERTEX
  5
135
330
131
100
AcDbEntity
  8
Outine
370
     0
100
AcDbVertex
100
AcDb2dVertex
 10
98.1166639294639
 20
-66.85380043901571
 30
0.0
  0
VERTEX
  5
136
330
131
100
AcDbEntity
  8
Outine
370
     0
100
AcDbVertex
100
AcDb2dVertex
 10
101.0274251049515
 20
-53.15989039469614
 30
0.0
  0
SEQEND
  5
137
330
131
100
AcDbEntity
  8
Outine
370
     0
  0
POLYLINE
  5
138
330
1F
100
AcDbEntity
  8
Outine
370
     0
100
AcDb2dPolyline
 66
     1
 10
0.0
 20
0.0
 30
0.0
  0
VERTEX
  5
139
330
138
100
AcDbEntity
  8
Outine
370
     0
100
AcDbVertex
100
AcDb2dVertex
 10
97.41817081982948
 20
-47.2298475359356
 30
0.0
  0
VERTEX
  5
13A
330
138
100
AcDbEntity
  8
Outine
370
     0
100
AcDbVertex
100
AcDb2dVertex
 10
100.3289319953171
 20
-33.53559298206749
 30
0.0
  0
VERTEX
  5
13B
330
138
100
AcDbEntity
  8
Outine
370
     0
100
AcDbVertex
100
AcDb2dVertex
 10
114.0231865491852
 20
-36.4466986671036
 30
0.0
  0
VERTEX
  5
13C
330
138
100
AcDbEntity
  8
Outine
370
     0
100
AcDbVertex
100
AcDb2dVertex
 10
111.1124253736976
 20
-50.14060871142318
 30
0.0
  0
VERTEX
  5
13D
330
138
100
AcDbEntity
  8
Outine
370
     0
100
AcDbVertex
100
AcDb2dVertex
 10
97.41817081982948
 20
-47.2298475359356
 30
0.0
  0
SEQEND
  5
13E
330
138
100
AcDbEntity
  8
Outine
370
     0
  0
POLYLINE
  5
13F
330
1F
100
AcDbEntity
  8
Outine
370
     0
100
AcDb2dPolyline
 66
     1
 10
0.0
 20
0.0
 30
0.0
  0
VERTEX
  5
140
330
13F
100
AcDbEntity
  8
Outine
370
     0
100
AcDbVertex
100
AcDb2dVertex
 10
94.97370331827047
 20
-12.92186414607509
 30
0.0
  0
VERTEX
  5
141
330
13F
100
AcDbEntity
  8
Outine
370
     0
100
AcDbVertex
100
AcDb2dVertex
 10
108.6679578721386
 20
-15.83262532156268
 30
0.0
  0
VERTEX
  5
142
330
13F
100
AcDbEntity
  8
Outine
370
     0
100
AcDbVertex
100
AcDb2dVertex
 10
105.757196696651
 20
-29.52687987543078
 30
0.0
  0
VERTEX
  5
143
330
13F
100
AcDbEntity
  8
Outine
370
     0
100
AcDbVertex
100
AcDb2dVertex
 10
92.06294214278287
 20
-26.61611869994319
 30
0.0
  0
VERTEX
  5
144
330
13F
100
AcDbEntity
  8
Outine
370
     0
100
AcDbVertex
100
AcDb2dVertex
 10
94.97370331827047
 20
-12.92186414607509
 30
0.0
  0
SEQEND
  5
145
330
13F
100
AcDbEntity
  8
Outine
370
     0
  0
POLYLINE
  5
146
330
1F
100
AcDbEntity
  8
Outine
370
     0
100
AcDb2dPolyline
 66
     1
 10
0.0
 20
0.0
 30
0.0
  0
VERTEX
  5
147
330
146
100
AcDbEntity
  8
Outine
370
     0
100
AcDbVertex
100
AcDb2dVertex
 10
46.97887232983515
 20
-79.58945717411305
 30
0.0
  0
VERTEX
  5
148
330
146
100
AcDbEntity
  8
Outine
370
     0
100
AcDbVertex
100
AcDb2dVertex
 10
46.97887232983515
 20
-65.58996716025182
 30
0.0
  0
VERTEX
  5
149
330
146
100
AcDbEntity
  8
Outine
370
     0
100
AcDbVertex
100
AcDb2dVertex
 10
60.97870685324491
 20
-65.58996716025182
 30
0.0
  0
VERTEX
  5
14A
330
146
100
AcDbEntity
  8
Outine
370
     0
100
AcDbVertex
100
AcDb2dVertex
 10
60.97870685324491
 20
-79.58945717411305
 30
0.0
  0
VERTEX
  5
14B
330
146
100
AcDbEntity
  8
Outine
370
     0
100
AcDbVertex
100
AcDb2dVertex
 10
46.97887232983515
 20
-79.58945717411305
 30
0.0
  0
SEQEND
  5
14C
330
146
100
AcDbEntity
  8
Outine
370
     0
  0
SPLINE
  5
14D
330
1F
100
AcDbEntity
  8
Outine
370
     0
100
AcDbSpline
210
0.0
220
0.0
230
1.0
 70
    11
 71
     3
 72
    17
 73
    13
 74
     0
 42
0.0000000001
 43
0.0000000001
 40
0.0
 40
0.0
 40
0.0
 40
0.0
 40
1.0
 40
1.0
 40
1.0
 40
2.0
 40
2.0
 40
2.0
 40
3.0
 40
3.0
 40
3.0
 40
4.0
 40
4.0
 40
4.0
 40
4.0
 10
50.00004881562499
 20
-90.00001896621528
 30
0.0
 10
50.00004881562499
 20
-90.8283921756436
 30
0.0
 10
49.32842745077554
 20
-91.50001354049306
 30
0.0
 10
48.50005424134721
 20
-91.50001354049306
 30
0.0
 10
47.67168103191889
 20
-91.50001354049306
 30
0.0
 10
47.00005966706943
 20
-90.8283921756436
 30
0.0
 10
47.00005966706943
 20
-90.00001896621528
 30
0.0
 10
47.00005966706943
 20
-89.17164575678696
 30
0.0
 10
47.67168103191889
 20
-88.5000243919375
 30
0.0
 10
48.50005424134721
 20
-88.5000243919375
 30
0.0
 10
49.32842745077554
 20
-88.5000243919375
 30
0.0
 10
50.00004881562499
 20
-89.17164575678696
 30
0.0
 10
50.00004881562499
 20
-90.00001896621528
 30
0.0
  0
POLYLINE
  5
14E
330
1F
100
AcDbEntity
  8
Outine
370
     0
100
AcDb2dPolyline
 66
     1
 10
0.0
 20
0.0
 30
0.0
  0
VERTEX
  5
14F
330
14E
100
AcDbEntity
  8
Outine
370
     0
100
AcDbVertex
100
AcDb2dVertex
 10
41.64982637847643
 20
-46.53996716501432
 30
0.0
  0
VERTEX
  5
150
330
14E
100
AcDbEntity
  8
Outine
370
     0
100
AcDbVertex
100
AcDb2dVertex
 10
55.6496609018862
 20
-46.53996716501432
 30
0.0
  0
VERTEX
  5
151
330
14E
100
AcDbEntity
  8
Outine
370
     0
100
AcDbVertex
100
AcDb2dVertex
 10
55.6496609018862
 20
-60.53962943364981
 30
0.0
  0
VERTEX
  5
152
330
14E
100
AcDbEntity
  8
Outine
370
     0
100
AcDbVertex
100
AcDb2dVertex
 10
41.64982637847643
 20
-60.53962943364981
 30
0.0
  0
VERTEX
  5
153
330
14E
100
AcDbEntity
  8
Outine
370
     0
100
AcDbVertex
100
AcDb2dVertex
 10
41.64982637847643
 20
-46.53996716501432
 30
0.0
  0
SEQEND
  5
154
330
14E
100
AcDbEntity
  8
Outine
370
     0
  0
POLYLINE
  5
155
330
1F
100
AcDbEntity
  8
Outine
370
     0
100
AcDb2dPolyline
 66
     1
 10
0.0
 20
0.0
 30
0.0
  0
VERTEX
  5
156
330
155
100
AcDbEntity
  8
Outine
370
     0
100
AcDbVertex
100
AcDb2dVertex
 10
40.9950859815047
 20
-41.48980169318658
 30
0.0
  0
VERTEX
  5
157
330
155
100
AcDbEntity
  8
Outine
370
     0
100
AcDbVertex
100
AcDb2dVertex
 10
40.9950859815047
 20
-27.48979491500255
 30
0.0
  0
VERTEX
  5
158
330
155
100
AcDbEntity
  8
Outine
370
     0
100
AcDbVertex
100
AcDb2dVertex
 10
54.99526501446299
 20
-27.48979491500255
 30
0.0
  0
VERTEX
  5
159
330
155
100
AcDbEntity
  8
Outine
370
     0
100
AcDbVertex
100
AcDb2dVertex
 10
54.99526501446299
 20
-41.48980169318658
 30
0.0
  0
VERTEX
  5
15A
330
155
100
AcDbEntity
  8
Outine
370
     0
100
AcDbVertex
100
AcDb2dVertex
 10
40.9950859815047
 20
-41.48980169318658
 30
0.0
  0
SEQEND
  5
15B
330
155
100
AcDbEntity
  8
Outine
370
     0
  0
POLYLINE
  5
15C
330
1F
100
AcDbEntity
  8
Outine
370
     0
100
AcDb2dPolyline
 66
     1
 10
0.0
 20
0.0
 30
0.0
  0
VERTEX
  5
15D
330
15C
100
AcDbEntity
  8
Outine
370
     0
100
AcDbVertex
100
AcDb2dVertex
 10
73.84493270723321
 20
-42.21930066218823
 30
0.0
  0
VERTEX
  5
15E
330
15C
100
AcDbEntity
  8
Outine
370
     0
100
AcDbVertex
100
AcDb2dVertex
 10
60.15067815336511
 20
-39.30819497715212
 30
0.0
  0
VERTEX
  5
15F
330
15C
100
AcDbEntity
  8
Outine
370
     0
100
AcDbVertex
100
AcDb2dVertex
 10
63.0614393288527
 20
-25.61428493283254
 30
0.0
  0
VERTEX
  5
160
330
15C
100
AcDbEntity
  8
Outine
370
     0
100
AcDbVertex
100
AcDb2dVertex
 10
76.7556938827208
 20
-28.52504610832013
 30
0.0
  0
VERTEX
  5
161
330
15C
100
AcDbEntity
  8
Outine
370
     0
100
AcDbVertex
100
AcDb2dVertex
 10
73.84493270723321
 20
-42.21930066218823
 30
0.0
  0
SEQEND
  5
162
330
15C
100
AcDbEntity
  8
Outine
370
     0
  0
POLYLINE
  5
163
330
1F
100
AcDbEntity
  8
Outine
370
     0
100
AcDb2dPolyline
 66
     1
 10
0.0
 20
0.0
 30
0.0
  0
VERTEX
  5
164
330
163
100
AcDbEntity
  8
Outine
370
     0
100
AcDbVertex
100
AcDb2dVertex
 10
77.45367022803242
 20
-48.14899901140025
 30
0.0
  0
VERTEX
  5
165
330
163
100
AcDbEntity
  8
Outine
370
     0
100
AcDbVertex
100
AcDb2dVertex
 10
74.5430813073191
 20
-61.84290905571983
 30
0.0
  0
VERTEX
  5
166
330
163
100
AcDbEntity
  8
Outine
370
     0
100
AcDbVertex
100
AcDb2dVertex
 10
60.84917126299951
 20
-58.93214788023224
 30
0.0
  0
VERTEX
  5
167
330
163
100
AcDbEntity
  8
Outine
370
     0
100
AcDbVertex
100
AcDb2dVertex
 10
63.75976018371284
 20
-45.23858234546119
 30
0.0
  0
VERTEX
  5
168
330
163
100
AcDbEntity
  8
Outine
370
     0
100
AcDbVertex
100
AcDb2dVertex
 10
77.45367022803242
 20
-48.14899901140025
 30
0.0
  0
SEQEND
  5
169
330
163
100
AcDbEntity
  8
Outine
370
     0
  0
POLYLINE
  5
16A
330
1F
100
AcDbEntity
  8
Outine
370
     0
100
AcDb2dPolyline
 66
     1
 10
0.0
 20
0.0
 30
0.0
  0
VERTEX
  5
16B
330
16A
100
AcDbEntity
  8
Outine
370
     0
100
AcDbVertex
100
AcDb2dVertex
 10
61.60313040994644
 20
-84.98413219446577
 30
0.0
  0
VERTEX
  5
16C
330
16A
100
AcDbEntity
  8
Outine
370
     0
100
AcDbVertex
100
AcDb2dVertex
 10
75.47050101194836
 20
-86.90615096568666
 30
0.0
  0
VERTEX
  5
16D
330
16A
100
AcDbEntity
  8
Outine
370
     0
100
AcDbVertex
100
AcDb2dVertex
 10
73.54848224072747
 20
-100.7733493129143
 30
0.0
  0
VERTEX
  5
16E
330
16A
100
AcDbEntity
  8
Outine
370
     0
100
AcDbVertex
100
AcDb2dVertex
 10
59.6809393839513
 20
-98.85115828691916
 30
0.0
  0
VERTEX
  5
16F
330
16A
100
AcDbEntity
  8
Outine
370
     0
100
AcDbVertex
100
AcDb2dVertex
 10
61.60313040994644
 20
-84.98413219446577
 30
0.0
  0
SEQEND
  5
170
330
16A
100
AcDbEntity
  8
Outine
370
     0
  0
POLYLINE
  5
171
330
1F
100
AcDbEntity
  8
Outine
370
     0
100
AcDb2dPolyline
 66
     1
 10
0.0
 20
0.0
 30
0.0
  0
VERTEX
  5
172
330
171
100
AcDbEntity
  8
Outine
370
     0
100
AcDbVertex
100
AcDb2dVertex
 10
66.2054334686917
 20
-79.54622122577317
 30
0.0
  0
VERTEX
  5
173
330
171
100
AcDbEntity
  8
Outine
370
     0
100
AcDbVertex
100
AcDb2dVertex
 10
69.11602238940503
 20
-65.85265569100211
 30
0.0
  0
VERTEX
  5
174
330
171
100
AcDbEntity
  8
Outine
370
     0
100
AcDbVertex
100
AcDb2dVertex
 10
82.8099324337246
 20
-68.7634168664897
 30
0.0
  0
VERTEX
  5
175
330
171
100
AcDbEntity
  8
Outine
370
     0
100
AcDbVertex
100
AcDb2dVertex
 10
79.89934351301127
 20
-82.45698240126076
 30
0.0
  0
VERTEX
  5
176
330
171
100
AcDbEntity
  8
Outine
370
     0
100
AcDbVertex
100
AcDb2dVertex
 10
66.2054334686917
 20
-79.54622122577317
 30
0.0
  0
SEQEND
  5
177
330
171
100
AcDbEntity
  8
Outine
370
     0
  0
POLYLINE
  5
178
330
1F
100
AcDbEntity
  8
Outine
370
     0
100
AcDb2dPolyline
 66
     1
 10
0.0
 20
0.0
 30
0.0
  0
VERTEX
  5
179
330
178
100
AcDbEntity
  8
Outine
370
     0
100
AcDbVertex
100
AcDb2dVertex
 10
79.48283146884458
 20
-62.89297415962398
 30
0.0
  0
VERTEX
  5
17A
330
178
100
AcDbEntity
  8
Outine
370
     0
100
AcDbVertex
100
AcDb2dVertex
 10
82.39359264433216
 20
-49.1990641153044
 30
0.0
  0
VERTEX
  5
17B
330
178
100
AcDbEntity
  8
Outine
370
     0
100
AcDbVertex
100
AcDb2dVertex
 10
96.08750268865174
 20
-52.10982529079199
 30
0.0
  0
VERTEX
  5
17C
330
178
100
AcDbEntity
  8
Outine
370
     0
100
AcDbVertex
100
AcDb2dVertex
 10
93.17674151316415
 20
-65.80373533511157
 30
0.0
  0
VERTEX
  5
17D
330
178
100
AcDbEntity
  8
Outine
370
     0
100
AcDbVertex
100
AcDb2dVertex
 10
79.48283146884458
 20
-62.89297415962398
 30
0.0
  0
SEQEND
  5
17E
330
178
100
AcDbEntity
  8
Outine
370
     0
  0
POLYLINE
  5
17F
330
1F
100
AcDbEntity
  8
Outine
370
     0
100
AcDb2dPolyline
 66
     1
 10
0.0
 20
0.0
 30
0.0
  0
VERTEX
  5
180
330
17F
100
AcDbEntity
  8
Outine
370
     0
100
AcDbVertex
100
AcDb2dVertex
 10
78.78451061398444
 20
-43.26902125654386
 30
0.0
  0
VERTEX
  5
181
330
17F
100
AcDbEntity
  8
Outine
370
     0
100
AcDbVertex
100
AcDb2dVertex
 10
81.69527178947202
 20
-29.57511121222428
 30
0.0
  0
VERTEX
  5
182
330
17F
100
AcDbEntity
  8
Outine
370
     0
100
AcDbVertex
100
AcDb2dVertex
 10
95.38952634334012
 20
-32.48587238771186
 30
0.0
  0
VERTEX
  5
183
330
17F
100
AcDbEntity
  8
Outine
370
     0
100
AcDbVertex
100
AcDb2dVertex
 10
92.47876516785253
 20
-46.17978243203144
 30
0.0
  0
VERTEX
  5
184
330
17F
100
AcDbEntity
  8
Outine
370
     0
100
AcDbVertex
100
AcDb2dVertex
 10
78.78451061398444
 20
-43.26902125654386
 30
0.0
  0
SEQEND
  5
185
330
17F
100
AcDbEntity
  8
Outine
370
     0
  0
POLYLINE
  5
186
330
1F
100
AcDbEntity
  8
Outine
370
     0
100
AcDb2dPolyline
 66
     1
 10
0.0
 20
0.0
 30
0.0
  0
VERTEX
  5
187
330
186
100
AcDbEntity
  8
Outine
370
     0
100
AcDbVertex
100
AcDb2dVertex
 10
76.3400431124254
 20
-8.961037866683352
 30
0.0
  0
VERTEX
  5
188
330
186
100
AcDbEntity
  8
Outine
370
     0
100
AcDbVertex
100
AcDb2dVertex
 10
90.03429766629351
 20
-11.87214355171946
 30
0.0
  0
VERTEX
  5
189
330
186
100
AcDbEntity
  8
Outine
370
     0
100
AcDbVertex
100
AcDb2dVertex
 10
87.12353649080593
 20
-25.56605359603904
 30
0.0
  0
VERTEX
  5
18A
330
186
100
AcDbEntity
  8
Outine
370
     0
100
AcDbVertex
100
AcDb2dVertex
 10
73.42928193693783
 20
-22.65529242055145
 30
0.0
  0
VERTEX
  5
18B
330
186
100
AcDbEntity
  8
Outine
370
     0
100
AcDbVertex
100
AcDb2dVertex
 10
76.3400431124254
 20
-8.961037866683352
 30
0.0
  0
SEQEND
  5
18C
330
186
100
AcDbEntity
  8
Outine
370
     0
  0
POLYLINE
  5
18D
330
1F
100
AcDbEntity
  8
Outine
370
     0
100
AcDb2dPolyline
 66
     1
 10
0.0
 20
0.0
 30
0.0
  0
VERTEX
  5
18E
330
18D
100
AcDbEntity
  8
Outine
370
     0
100
AcDbVertex
100
AcDb2dVertex
 10
54.60269638391878
 20
-6.500033906795131
 30
0.0
  0
VERTEX
  5
18F
330
18D
100
AcDbEntity
  8
Outine
370
     0
100
AcDbVertex
100
AcDb2dVertex
 10
68.60287541687707
 20
-6.500033906795131
 30
0.0
  0
VERTEX
  5
190
330
18D
100
AcDbEntity
  8
Outine
370
     0
100
AcDbVertex
100
AcDb2dVertex
 10
68.60287541687707
 20
-20.50004068497916
 30
0.0
  0
VERTEX
  5
191
330
18D
100
AcDbEntity
  8
Outine
370
     0
100
AcDbVertex
100
AcDb2dVertex
 10
54.60269638391878
 20
-20.50004068497916
 30
0.0
  0
VERTEX
  5
192
330
18D
100
AcDbEntity
  8
Outine
370
     0
100
AcDbVertex
100
AcDb2dVertex
 10
54.60269638391878
 20
-6.500033906795131
 30
0.0
  0
SEQEND
  5
193
330
18D
100
AcDbEntity
  8
Outine
370
     0
  0
POLYLINE
  5
194
330
1F
100
AcDbEntity
  8
Outine
370
     0
100
AcDb2dPolyline
 66
     1
 10
0.0
 20
0.0
 30
0.0
  0
VERTEX
  5
195
330
194
100
AcDbEntity
  8
Outine
370
     0
100
AcDbVertex
100
AcDb2dVertex
 10
35.58611381488819
 20
-8.43979491976505
 30
0.0
  0
VERTEX
  5
196
330
194
100
AcDbEntity
  8
Outine
370
     0
100
AcDbVertex
100
AcDb2dVertex
 10
49.58629284784649
 20
-8.43979491976505
 30
0.0
  0
VERTEX
  5
197
330
194
100
AcDbEntity
  8
Outine
370
     0
100
AcDbVertex
100
AcDb2dVertex
 10
49.58629284784649
 20
-22.43980169794908
 30
0.0
  0
VERTEX
  5
198
330
194
100
AcDbEntity
  8
Outine
370
     0
100
AcDbVertex
100
AcDb2dVertex
 10
35.58611381488819
 20
-22.43980169794908
 30
0.0
  0
VERTEX
  5
199
330
194
100
AcDbEntity
  8
Outine
370
     0
100
AcDbVertex
100
AcDb2dVertex
 10
35.58611381488819
 20
-8.43979491976505
 30
0.0
  0
SEQEND
  5
19A
330
194
100
AcDbEntity
  8
Outine
370
     0
  0
POLYLINE
  5
19B
330
1F
100
AcDbEntity
  8
Outine
370
     0
100
AcDb2dPolyline
 66
     1
 10
0.0
 20
0.0
 30
0.0
  0
VERTEX
  5
19C
330
19B
100
AcDbEntity
  8
Outine
370
     0
100
AcDbVertex
100
AcDb2dVertex
 10
39.54780136815125
 20
-65.58996716025182
 30
0.0
  0
VERTEX
  5
19D
330
19B
100
AcDbEntity
  8
Outine
370
     0
100
AcDbVertex
100
AcDb2dVertex
 10
39.54780136815125
 20
-79.58945717411305
 30
0.0
  0
VERTEX
  5
19E
330
19B
100
AcDbEntity
  8
Outine
370
     0
100
AcDbVertex
100
AcDb2dVertex
 10
25.54796684474148
 20
-79.58945717411305
 30
0.0
  0
VERTEX
  5
19F
330
19B
100
AcDbEntity
  8
Outine
370
     0
100
AcDbVertex
100
AcDb2dVertex
 10
25.54796684474148
 20
-65.58996716025182
 30
0.0
  0
VERTEX
  5
1A0
330
19B
100
AcDbEntity
  8
Outine
370
     0
100
AcDbVertex
100
AcDb2dVertex
 10
39.54780136815125
 20
-65.58996716025182
 30
0.0
  0
SEQEND
  5
1A1
330
19B
100
AcDbEntity
  8
Outine
370
     0
  0
POLYLINE
  5
1A2
330
1F
100
AcDbEntity
  8
Outine
370
     0
100
AcDb2dPolyline
 66
     1
 10
0.0
 20
0.0
 30
0.0
  0
VERTEX
  5
1A3
330
1A2
100
AcDbEntity
  8
Outine
370
     0
100
AcDbVertex
100
AcDb2dVertex
 10
34.21875541679253
 20
-60.53962943364981
 30
0.0
  0
VERTEX
  5
1A4
330
1A2
100
AcDbEntity
  8
Outine
370
     0
100
AcDbVertex
100
AcDb2dVertex
 10
20.21892089338277
 20
-60.53962943364981
 30
0.0
  0
VERTEX
  5
1A5
330
1A2
100
AcDbEntity
  8
Outine
370
     0
100
AcDbVertex
100
AcDb2dVertex
 10
20.21892089338277
 20
-46.53996716501432
 30
0.0
  0
VERTEX
  5
1A6
330
1A2
100
AcDbEntity
  8
Outine
370
     0
100
AcDbVertex
100
AcDb2dVertex
 10
34.21875541679253
 20
-46.53996716501432
 30
0.0
  0
VERTEX
  5
1A7
330
1A2
100
AcDbEntity
  8
Outine
370
     0
100
AcDbVertex
100
AcDb2dVertex
 10
34.21875541679253
 20
-60.53962943364981
 30
0.0
  0
SEQEND
  5
1A8
330
1A2
100
AcDbEntity
  8
Outine
370
     0
  0
POLYLINE
  5
1A9
330
1F
100
AcDbEntity
  8
Outine
370
     0
100
AcDb2dPolyline
 66
     1
 10
0.0
 20
0.0
 30
0.0
  0
VERTEX
  5
1AA
330
1A9
100
AcDbEntity
  8
Outine
370
     0
100
AcDbVertex
100
AcDb2dVertex
 10
33.56435952936933
 20
-41.48980169318658
 30
0.0
  0
VERTEX
  5
1AB
330
1A9
100
AcDbEntity
  8
Outine
370
     0
100
AcDbVertex
100
AcDb2dVertex
 10
19.56418049641104
 20
-41.48980169318658
 30
0.0
  0
VERTEX
  5
1AC
330
1A9
100
AcDbEntity
  8
Outine
370
     0
100
AcDbVertex
100
AcDb2dVertex
 10
19.56418049641104
 20
-27.48979491500255
 30
0.0
  0
VERTEX
  5
1AD
330
1A9
100
AcDbEntity
  8
Outine
370
     0
100
AcDbVertex
100
AcDb2dVertex
 10
33.56435952936933
 20
-27.48979491500255
 30
0.0
  0
VERTEX
  5
1AE
330
1A9
100
AcDbEntity
  8
Outine
370
     0
100
AcDbVertex
100
AcDb2dVertex
 10
33.56435952936933
 20
-41.48980169318658
 30
0.0
  0
SEQEND
  5
1AF
330
1A9
100
AcDbEntity
  8
Outine
370
     0
  0
POLYLINE
  5
1B0
330
1F
100
AcDbEntity
  8
Outine
370
     0
100
AcDb2dPolyline
 66
     1
 10
0.0
 20
0.0
 30
0.0
  0
VERTEX
  5
1B1
330
1B0
100
AcDbEntity
  8
Outine
370
     0
100
AcDbVertex
100
AcDb2dVertex
 10
16.53611381965069
 20
-8.43979491976505
 30
0.0
  0
VERTEX
  5
1B2
330
1B0
100
AcDbEntity
  8
Outine
370
     0
100
AcDbVertex
100
AcDb2dVertex
 10
30.53629285260898
 20
-8.43979491976505
 30
0.0
  0
VERTEX
  5
1B3
330
1B0
100
AcDbEntity
  8
Outine
370
     0
100
AcDbVertex
100
AcDb2dVertex
 10
30.53629285260898
 20
-22.43980169794908
 30
0.0
  0
VERTEX
  5
1B4
330
1B0
100
AcDbEntity
  8
Outine
370
     0
100
AcDbVertex
100
AcDb2dVertex
 10
16.53611381965069
 20
-22.43980169794908
 30
0.0
  0
VERTEX
  5
1B5
330
1B0
100
AcDbEntity
  8
Outine
370
     0
100
AcDbVertex
100
AcDb2dVertex
 10
16.53611381965069
 20
-8.43979491976505
 30
0.0
  0
SEQEND
  5
1B6
330
1B0
100
AcDbEntity
  8
Outine
370
     0
  0
SPLINE
  5
1B7
330
1F
100
AcDbEntity
  8
Outine
370
     0
100
AcDbSpline
210
0.0
220
0.0
230
1.0
 70
    11
 71
     3
 72
    23
 73
    19
 74
     0
 42
0.0000000001
 43
0.0000000001
 40
0.0
 40
0.0
 40
0.0
 40
0.0
 40
1.0
 40
1.0
 40
1.0
 40
2.0
 40
2.0
 40
2.0
 40
3.0
 40
3.0
 40
3.0
 40
4.0
 40
4.0
 40
4.0
 40
5.0
 40
5.0
 40
5.0
 40
6.0
 40
6.0
 40
6.0
 40
6.0
 10
14.50006238786804
 20
-88.5000243919375
 30
0.0
 10
14.50006238786804
 20
-88.5000243919375
 30
0.0
 10
41.50013697964233
 20
-88.5000243919375
 30
0.0
 10
41.50013697964233
 20
-88.5000243919375
 30
0.0
 10
42.32851018907066
 20
-88.5000243919375
 30
0.0
 10
43.00013155392011
 20
-89.17164575678696
 30
0.0
 10
43.00013155392011
 20
-90.00001896621528
 30
0.0
 10
43.00013155392011
 20
-90.8283921756436
 30
0.0
 10
42.32851018907066
 20
-91.50001354049306
 30
0.0
 10
41.50013697964233
 20
-91.50001354049306
 30
0.0
 10
41.50013697964233
 20
-91.50001354049306
 30
0.0
 10
14.50006238786804
 20
-91.50001354049306
 30
0.0
 10
14.50006238786804
 20
-91.50001354049306
 30
0.0
 10
13.67168917843972
 20
-91.50001354049306
 30
0.0
 10
13.00006781359026
 20
-90.8283921756436
 30
0.0
 10
13.00006781359026
 20
-90.00001896621528
 30
0.0
 10
13.00006781359026
 20
-89.17164575678696
 30
0.0
 10
13.67168917843972
 20
-88.5000243919375
 30
0.0
 10
14.50006238786804
 20
-88.5000243919375
 30
0.0
  0
SPLINE
  5
1B8
330
1F
100
AcDbEntity
  8
Outine
370
     0
100
AcDbSpline
210
0.0
220
0.0
230
1.0
 70
    11
 71
     3
 72
    17
 73
    13
 74
     0
 42
0.0000000001
 43
0.0000000001
 40
0.0
 40
0.0
 40
0.0
 40
0.0
 40
1.0
 40
1.0
 40
1.0
 40
2.0
 40
2.0
 40
2.0
 40
3.0
 40
3.0
 40
3.0
 40
4.0
 40
4.0
 40
4.0
 40
4.0
 10
7.499972871388896
 20
-5.999978297111117
 30
0.0
 10
8.32834608081722
 20
-5.999978297111117
 30
0.0
 10
8.999967445666675
 20
-6.671599661960572
 30
0.0
 10
8.999967445666675
 20
-7.499972871388896
 30
0.0
 10
8.999967445666675
 20
-8.32834608081722
 30
0.0
 10
8.32834608081722
 20
-8.999967445666675
 30
0.0
 10
7.499972871388896
 20
-8.999967445666675
 30
0.0
 10
6.671599661960572
 20
-8.999967445666675
 30
0.0
 10
5.999978297111117
 20
-8.32834608081722
 30
0.0
 10
5.999978297111117
 20
-7.499972871388896
 30
0.0
 10
5.999978297111117
 20
-6.671599661960572
 30
0.0
 10
6.671599661960572
 20
-5.999978297111117
 30
0.0
 10
7.499972871388896
 20
-5.999978297111117
 30
0.0
  0
SPLINE
  5
1B9
330
1F
100
AcDbEntity
  8
Outine
370
     0
100
AcDbSpline
210
0.0
220
0.0
230
1.0
 70
    11
 71
     3
 72
    23
 73
    19
 74
     0
 42
0.0000000001
 43
0.0000000001
 40
0.0
 40
0.0
 40
0.0
 40
0.0
 40
1.0
 40
1.0
 40
1.0
 40
2.0
 40
2.0
 40
2.0
 40
3.0
 40
3.0
 40
3.0
 40
4.0
 40
4.0
 40
4.0
 40
5.0
 40
5.0
 40
5.0
 40
6.0
 40
6.0
 40
6.0
 40
6.0
 10
5.999978297111117
 20
-14.50006238786804
 30
0.0
 10
5.999978297111117
 20
-13.67168917843972
 30
0.0
 10
6.671599661960572
 20
-13.00006781359026
 30
0.0
 10
7.499972871388896
 20
-13.00006781359026
 30
0.0
 10
8.32834608081722
 20
-13.00006781359026
 30
0.0
 10
8.999967445666675
 20
-13.67168917843972
 30
0.0
 10
8.999967445666675
 20
-14.50006238786804
 30
0.0
 10
8.999967445666675
 20
-14.50006238786804
 30
0.0
 10
8.999967445666675
 20
-83.0001017045104
 30
0.0
 10
8.999967445666675
 20
-83.0001017045104
 30
0.0
 10
8.999967445666675
 20
-83.82847491393872
 30
0.0
 10
8.32834608081722
 20
-84.50009627878818
 30
0.0
 10
7.499972871388896
 20
-84.50009627878818
 30
0.0
 10
6.671599661960572
 20
-84.50009627878818
 30
0.0
 10
5.999978297111117
 20
-83.82847491393872
 30
0.0
 10
5.999978297111117
 20
-83.0001017045104
 30
0.0
 10
5.999978297111117
 20
-83.0001017045104
 30
0.0
 10
5.999978297111117
 20
-14.50006238786804
 30
0.0
 10
5.999978297111117
 20
-14.50006238786804
 30
0.0
  0
SPLINE
  5
1BA
330
1F
100
AcDbEntity
  8
Outine
370
     0
100
AcDbSpline
210
0.0
220
0.0
230
1.0
 70
    11
 71
     3
 72
    17
 73
    13
 74
     0
 42
0.0000000001
 43
0.0000000001
 40
0.0
 40
0.0
 40
0.0
 40
0.0
 40
1.0
 40
1.0
 40
1.0
 40
2.0
 40
2.0
 40
2.0
 40
3.0
 40
3.0
 40
3.0
 40
4.0
 40
4.0
 40
4.0
 40
4.0
 10
5.000039332517352
 20
-116.5000379483055
 30
0.0
 10
4.171666123089028
 20
-116.5000379483055
 30
0.0
 10
3.500044758239572
 20
-115.8284165834561
 30
0.0
 10
3.500044758239572
 20
-115.0000433740278
 30
0.0
 10
3.500044758239572
 20
-114.1716701645994
 30
0.0
 10
4.171666123089028
 20
-113.50004879975
 30
0.0
 10
5.000039332517352
 20
-113.50004879975
 30
0.0
 10
5.828412541945675
 20
-113.50004879975
 30
0.0
 10
6.500033906795131
 20
-114.1716701645994
 30
0.0
 10
6.500033906795131
 20
-115.0000433740278
 30
0.0
 10
6.500033906795131
 20
-115.8284165834561
 30
0.0
 10
5.828412541945675
 20
-116.5000379483055
 30
0.0
 10
5.000039332517352
 20
-116.5000379483055
 30
0.0
  0
SPLINE
  5
1BB
330
1F
100
AcDbEntity
  8
Outine
370
     0
100
AcDbSpline
210
0.0
220
0.0
230
1.0
 70
    11
 71
     3
 72
    17
 73
    13
 74
     0
 42
0.0000000001
 43
0.0000000001
 40
0.0
 40
0.0
 40
0.0
 40
0.0
 40
1.0
 40
1.0
 40
1.0
 40
2.0
 40
2.0
 40
2.0
 40
3.0
 40
3.0
 40
3.0
 40
4.0
 40
4.0
 40
4.0
 40
4.0
 10
5.999978297111117
 20
-90.00001896621528
 30
0.0
 10
5.999978297111117
 20
-89.17164575678696
 30
0.0
 10
6.671599661960572
 20
-88.5000243919375
 30
0.0
 10
7.499972871388896
 20
-88.5000243919375
 30
0.0
 10
8.32834608081722
 20
-88.5000243919375
 30
0.0
 10
8.999967445666675
 20
-89.17164575678696
 30
0.0
 10
8.999967445666675
 20
-90.00001896621528
 30
0.0
 10
8.999967445666675
 20
-90.8283921756436
 30
0.0
 10
8.32834608081722
 20
-91.50001354049306
 30
0.0
 10
7.499972871388896
 20
-91.50001354049306
 30
0.0
 10
6.671599661960572
 20
-91.50001354049306
 30
0.0
 10
5.999978297111117
 20
-90.8283921756436
 30
0.0
 10
5.999978297111117
 20
-90.00001896621528
 30
0.0
  0
POLYLINE
  5
1BC
330
1F
100
AcDbEntity
  8
Outine
370
     0
100
AcDb2dPolyline
 66
     1
 10
0.0
 20
0.0
 30
0.0
  0
VERTEX
  5
1BD
330
1BC
100
AcDbEntity
  8
Outine
370
     0
100
AcDbVertex
100
AcDb2dVertex
 10
22.011231819584
 20
-114.4850015989829
 30
0.0
  0
VERTEX
  5
1BE
330
1BC
100
AcDbEntity
  8
Outine
370
     0
100
AcDbVertex
100
AcDb2dVertex
 10
8.011397296174234
 20
-114.4850015989829
 30
0.0
  0
VERTEX
  5
1BF
330
1BC
100
AcDbEntity
  8
Outine
370
     0
100
AcDbVertex
100
AcDb2dVertex
 10
8.011397296174234
 20
-100.4855115851217
 30
0.0
  0
VERTEX
  5
1C0
330
1BC
100
AcDbEntity
  8
Outine
370
     0
100
AcDbVertex
100
AcDb2dVertex
 10
22.011231819584
 20
-100.4855115851217
 30
0.0
  0
VERTEX
  5
1C1
330
1BC
100
AcDbEntity
  8
Outine
370
     0
100
AcDbVertex
100
AcDb2dVertex
 10
22.011231819584
 20
-114.4850015989829
 30
0.0
  0
SEQEND
  5
1C2
330
1BC
100
AcDbEntity
  8
Outine
370
     0
  0
SPLINE
  5
1C3
330
1F
100
AcDbEntity
  8
Outine
370
     0
100
AcDbSpline
210
0.0
220
0.0
230
1.0
 70
    11
 71
     3
 72
    35
 73
    31
 74
     0
 42
0.0000000001
 43
0.0000000001
 40
0.0
 40
0.0
 40
0.0
 40
0.0
 40
1.0
 40
1.0
 40
1.0
 40
2.0
 40
2.0
 40
2.0
 40
3.0
 40
3.0
 40
3.0
 40
4.0
 40
4.0
 40
4.0
 40
5.0
 40
5.0
 40
5.0
 40
6.0
 40
6.0
 40
6.0
 40
7.0
 40
7.0
 40
7.0
 40
8.0
 40
8.0
 40
8.0
 40
9.0
 40
9.0
 40
9.0
 40
10.0
 40
10.0
 40
10.0
 40
10.0
 10
100.1013834385163
 20
-114.4999877643438
 30
0.0
 10
100.1013834385163
 20
-115.3283609737721
 30
0.0
 10
99.42976207366686
 20
-115.9999823386215
 30
0.0
 10
98.60138886423854
 20
-115.9999823386215
 30
0.0
 10
98.60138886423854
 20
-115.9999823386215
 30
0.0
 10
31.50005831460762
 20
-115.9999823386215
 30
0.0
 10
31.50005831460762
 20
-115.9999823386215
 30
0.0
 10
30.6716851051793
 20
-115.9999823386215
 30
0.0
 10
30.00006374032985
 20
-115.3283609737721
 30
0.0
 10
30.00006374032985
 20
-114.4999877643438
 30
0.0
 10
30.00006374032985
 20
-114.4999877643438
 30
0.0
 10
30.00006374032985
 20
-101.9527777522896
 30
0.0
 10
30.00006374032985
 20
-101.9527777522896
 30
0.0
 10
30.00006374032985
 20
-101.1244045428613
 30
0.0
 10
30.6716851051793
 20
-100.4527831780118
 30
0.0
 10
31.50005831460762
 20
-100.4527831780118
 30
0.0
 10
31.50005831460762
 20
-100.4527831780118
 30
0.0
 10
46.92375080207115
 20
-100.4527831780118
 30
0.0
 10
46.92375080207115
 20
-100.4527831780118
 30
0.0
 10
47.0264146475316
 20
-100.4527831780118
 30
0.0
 10
47.12890623821777
 20
-100.4632907192418
 30
0.0
 10
47.22950302638707
 20
-100.4843058017019
 30
0.0
 10
47.22950302638707
 20
-100.4843058017019
 30
0.0
 10
98.90714108855447
 20
-111.2440280212341
 30
0.0
 10
98.90714108855447
 20
-111.2440280212341
 30
0.0
 10
99.60287812180067
 20
-111.3888942863889
 30
0.0
 10
100.1013834385163
 20
-112.0019490279891
 30
0.0
 10
100.1013834385163
 20
-112.7124999718219
 30
0.0
 10
100.1013834385163
 20
-112.7124999718219
 30
0.0
 10
100.1013834385163
 20
-114.4999877643438
 30
0.0
 10
100.1013834385163
 20
-114.4999877643438
 30
0.0
  0
POLYLINE
  5
1C4
330
1F
100
AcDbEntity
  8
Outine
370
     0
100
AcDb2dPolyline
 66
     1
 10
0.0
 20
0.0
 30
0.0
  0
VERTEX
  5
1C5
330
1C4
100
AcDbEntity
  8
Outine
370
     0
100
AcDbVertex
100
AcDb2dVertex
 10
83.20715194317391
 20
-102.6355956774661
 30
0.0
  0
VERTEX
  5
1C6
330
1C4
100
AcDbEntity
  8
Outine
370
     0
100
AcDbVertex
100
AcDb2dVertex
 10
86.11791311866149
 20
-88.94203014269505
 30
0.0
  0
VERTEX
  5
1C7
330
1C4
100
AcDbEntity
  8
Outine
370
     0
100
AcDbVertex
100
AcDb2dVertex
 10
99.81182316298107
 20
-91.85279131818264
 30
0.0
  0
VERTEX
  5
1C8
330
1C4
100
AcDbEntity
  8
Outine
370
     0
100
AcDbVertex
100
AcDb2dVertex
 10
96.90106198749349
 20
-105.5463568529537
 30
0.0
  0
VERTEX
  5
1C9
330
1C4
100
AcDbEntity
  8
Outine
370
     0
100
AcDbVertex
100
AcDb2dVertex
 10
83.20715194317391
 20
-102.6355956774661
 30
0.0
  0
SEQEND
  5
1CA
330
1C4
100
AcDbEntity
  8
Outine
370
     0
  0
POLYLINE
  5
1CB
330
1F
100
AcDbEntity
  8
Outine
370
     0
100
AcDb2dPolyline
 66
     1
 10
0.0
 20
0.0
 30
0.0
  0
VERTEX
  5
1CC
330
1CB
100
AcDbEntity
  8
Outine
370
     0
100
AcDbVertex
100
AcDb2dVertex
 10
98.53283146408208
 20
-86.4178086806525
 30
0.0
  0
VERTEX
  5
1CD
330
1CB
100
AcDbEntity
  8
Outine
370
     0
100
AcDbVertex
100
AcDb2dVertex
 10
84.8389214197625
 20
-83.5070475051649
 30
0.0
  0
VERTEX
  5
1CE
330
1CB
100
AcDbEntity
  8
Outine
370
     0
100
AcDbVertex
100
AcDb2dVertex
 10
87.74968259525008
 20
-69.81348197039385
 30
0.0
  0
VERTEX
  5
1CF
330
1CB
100
AcDbEntity
  8
Outine
370
     0
100
AcDbVertex
100
AcDb2dVertex
 10
101.4435926395697
 20
-72.72424314588145
 30
0.0
  0
VERTEX
  5
1D0
330
1CB
100
AcDbEntity
  8
Outine
370
     0
100
AcDbVertex
100
AcDb2dVertex
 10
98.53283146408208
 20
-86.4178086806525
 30
0.0
  0
SEQEND
  5
1D1
330
1CB
100
AcDbEntity
  8
Outine
370
     0
  0
POLYLINE
  5
1D2
330
1F
100
AcDbEntity
  8
Outine
370
     0
100
AcDb2dPolyline
 66
     1
 10
0.0
 20
0.0
 30
0.0
  0
VERTEX
  5
1D3
330
1D2
100
AcDbEntity
  8
Outine
370
     0
100
AcDbVertex
100
AcDb2dVertex
 10
106.3833428010951
 20
-73.77396374023706
 30
0.0
  0
VERTEX
  5
1D4
330
1D2
100
AcDbEntity
  8
Outine
370
     0
100
AcDbVertex
100
AcDb2dVertex
 10
120.0772528454147
 20
-76.68472491572466
 30
0.0
  0
VERTEX
  5
1D5
330
1D2
100
AcDbEntity
  8
Outine
370
     0
100
AcDbVertex
100
AcDb2dVertex
 10
117.1666639247014
 20
-90.37829045049571
 30
0.0
  0
VERTEX
  5
1D6
330
1D2
100
AcDbEntity
  8
Outine
370
     0
100
AcDbVertex
100
AcDb2dVertex
 10
103.4727538803818
 20
-87.46752927500812
 30
0.0
  0
VERTEX
  5
1D7
330
1D2
100
AcDbEntity
  8
Outine
370
     0
100
AcDbVertex
100
AcDb2dVertex
 10
106.3833428010951
 20
-73.77396374023706
 30
0.0
  0
SEQEND
  5
1D8
330
1D2
100
AcDbEntity
  8
Outine
370
     0
  0
SPLINE
  5
1D9
330
1F
100
AcDbEntity
  8
Outine
370
     0
100
AcDbSpline
210
0.0
220
0.0
230
1.0
 70
    11
 71
     3
 72
    17
 73
    13
 74
     0
 42
0.0000000001
 43
0.0000000001
 40
0.0
 40
0.0
 40
0.0
 40
0.0
 40
1.0
 40
1.0
 40
1.0
 40
2.0
 40
2.0
 40
2.0
 40
3.0
 40
3.0
 40
3.0
 40
4.0
 40
4.0
 40
4.0
 40
4.0
 10
105.5000203186771
 20
-115.9999823386215
 30
0.0
 10
104.6716471092488
 20
-115.9999823386215
 30
0.0
 10
104.0000257443993
 20
-115.3283609737721
 30
0.0
 10
104.0000257443993
 20
-114.4999877643438
 30
0.0
 10
104.0000257443993
 20
-113.6716145549154
 30
0.0
 10
104.6716471092488
 20
-112.999993190066
 30
0.0
 10
105.5000203186771
 20
-112.999993190066
 30
0.0
 10
106.3283935281054
 20
-112.999993190066
 30
0.0
 10
107.0000148929549
 20
-113.6716145549154
 30
0.0
 10
107.0000148929549
 20
-114.4999877643438
 30
0.0
 10
107.0000148929549
 20
-115.3283609737721
 30
0.0
 10
106.3283935281054
 20
-115.9999823386215
 30
0.0
 10
105.5000203186771
 20
-115.9999823386215
 30
0.0
  0
POLYLINE
  5
1DA
330
1F
100
AcDbEntity
  8
Outine
370
     0
100
AcDb2dPolyline
 66
     1
 10
0.0
 20
0.0
 30
0.0
  0
VERTEX
  5
1DB
330
1DA
100
AcDbEntity
  8
Outine
370
     0
100
AcDbVertex
100
AcDb2dVertex
 10
120.1938693275904
 20
-110.4973035748062
 30
0.0
  0
VERTEX
  5
1DC
330
1DA
100
AcDbEntity
  8
Outine
370
     0
100
AcDbVertex
100
AcDb2dVertex
 10
106.4996147737223
 20
-107.5865423993186
 30
0.0
  0
VERTEX
  5
1DD
330
1DA
100
AcDbEntity
  8
Outine
370
     0
100
AcDbVertex
100
AcDb2dVertex
 10
109.4103759492099
 20
-93.89297686454759
 30
0.0
  0
VERTEX
  5
1DE
330
1DA
100
AcDbEntity
  8
Outine
370
     0
100
AcDbVertex
100
AcDb2dVertex
 10
123.104630503078
 20
-96.80373804003519
 30
0.0
  0
VERTEX
  5
1DF
330
1DA
100
AcDbEntity
  8
Outine
370
     0
100
AcDbVertex
100
AcDb2dVertex
 10
120.1938693275904
 20
-110.4973035748062
 30
0.0
  0
SEQEND
  5
1E0
330
1DA
100
AcDbEntity
  8
Outine
370
     0
  0
POLYLINE
  5
1E1
330
1F
100
AcDbEntity
  8
Outine
370
     0
100
AcDb2dPolyline
 66
     1
 10
0.0
 20
0.0
 30
0.0
  0
VERTEX
  5
1E2
330
1E1
100
AcDbEntity
  8
Outine
370
     0
100
AcDbVertex
100
AcDb2dVertex
 10
142.7439140810675
 20
-114.2645154879269
 30
0.0
  0
VERTEX
  5
1E3
330
1E1
100
AcDbEntity
  8
Outine
370
     0
100
AcDbVertex
100
AcDb2dVertex
 10
128.8222832251729
 20
-112.786052760432
 30
0.0
  0
VERTEX
  5
1E4
330
1E1
100
AcDbEntity
  8
Outine
370
     0
100
AcDbVertex
100
AcDb2dVertex
 10
130.3005736978936
 20
-98.86459415931164
 30
0.0
  0
VERTEX
  5
1E5
330
1E1
100
AcDbEntity
  8
Outine
370
     0
100
AcDbVertex
100
AcDb2dVertex
 10
144.2222045537882
 20
-100.3428846320323
 30
0.0
  0
VERTEX
  5
1E6
330
1E1
100
AcDbEntity
  8
Outine
370
     0
100
AcDbVertex
100
AcDb2dVertex
 10
142.7439140810675
 20
-114.2645154879269
 30
0.0
  0
SEQEND
  5
1E7
330
1E1
100
AcDbEntity
  8
Outine
370
     0
  0
SPLINE
  5
1E8
330
1F
100
AcDbEntity
  8
Outine
370
     0
100
AcDbSpline
210
0.0
220
0.0
230
1.0
 70
    11
 71
     3
 72
    17
 73
    13
 74
     0
 42
0.0000000001
 43
0.0000000001
 40
0.0
 40
0.0
 40
0.0
 40
0.0
 40
1.0
 40
1.0
 40
1.0
 40
2.0
 40
2.0
 40
2.0
 40
3.0
 40
3.0
 40
3.0
 40
4.0
 40
4.0
 40
4.0
 40
4.0
 10
143.0000569303958
 20
-91.50001354049306
 30
0.0
 10
142.1716837209675
 20
-91.50001354049306
 30
0.0
 10
141.500062356118
 20
-90.8283921756436
 30
0.0
 10
141.500062356118
 20
-90.00001896621528
 30
0.0
 10
141.500062356118
 20
-89.17164575678696
 30
0.0
 10
142.1716837209675
 20
-88.5000243919375
 30
0.0
 10
143.0000569303958
 20
-88.5000243919375
 30
0.0
 10
143.8284301398241
 20
-88.5000243919375
 30
0.0
 10
144.5000515046736
 20
-89.17164575678696
 30
0.0
 10
144.5000515046736
 20
-90.00001896621528
 30
0.0
 10
144.5000515046736
 20
-90.8283921756436
 30
0.0
 10
143.8284301398241
 20
-91.50001354049306
 30
0.0
 10
143.0000569303958
 20
-91.50001354049306
 30
0.0
  0
POLYLINE
  5
1E9
330
1F
100
AcDbEntity
  8
Outine
370
     0
100
AcDb2dPolyline
 66
     1
 10
0.0
 20
0.0
 30
0.0
  0
VERTEX
  5
1EA
330
1E9
100
AcDbEntity
  8
Outine
370
     0
100
AcDbVertex
100
AcDb2dVertex
 10
163.2754773897367
 20
-114.4996432547952
 30
0.0
  0
VERTEX
  5
1EB
330
1E9
100
AcDbEntity
  8
Outine
370
     0
100
AcDbVertex
100
AcDb2dVertex
 10
149.2256889817908
 20
-114.4996432547952
 30
0.0
  0
VERTEX
  5
1EC
330
1E9
100
AcDbEntity
  8
Outine
370
     0
100
AcDbVertex
100
AcDb2dVertex
 10
149.2256889817908
 20
-100.4501993563979
 30
0.0
  0
VERTEX
  5
1ED
330
1E9
100
AcDbEntity
  8
Outine
370
     0
100
AcDbVertex
100
AcDb2dVertex
 10
163.2754773897367
 20
-100.4501993563979
 30
0.0
  0
VERTEX
  5
1EE
330
1E9
100
AcDbEntity
  8
Outine
370
     0
100
AcDbVertex
100
AcDb2dVertex
 10
163.2754773897367
 20
-114.4996432547952
 30
0.0
  0
SEQEND
  5
1EF
330
1E9
100
AcDbEntity
  8
Outine
370
     0
  0
POLYLINE
  5
1F0
330
1F
100
AcDbEntity
  8
Outine
370
     0
100
AcDb2dPolyline
 66
     1
 10
0.0
 20
0.0
 30
0.0
  0
VERTEX
  5
1F1
330
1F0
100
AcDbEntity
  8
Outine
370
     0
100
AcDbVertex
100
AcDb2dVertex
 10
163.2754773897367
 20
-95.44964325955773
 30
0.0
  0
VERTEX
  5
1F2
330
1F0
100
AcDbEntity
  8
Outine
370
     0
100
AcDbVertex
100
AcDb2dVertex
 10
149.2256889817908
 20
-95.44964325955773
 30
0.0
  0
VERTEX
  5
1F3
330
1F0
100
AcDbEntity
  8
Outine
370
     0
100
AcDbVertex
100
AcDb2dVertex
 10
149.2256889817908
 20
-81.40019936116038
 30
0.0
  0
VERTEX
  5
1F4
330
1F0
100
AcDbEntity
  8
Outine
370
     0
100
AcDbVertex
100
AcDb2dVertex
 10
163.2754773897367
 20
-81.40019936116038
 30
0.0
  0
VERTEX
  5
1F5
330
1F0
100
AcDbEntity
  8
Outine
370
     0
100
AcDbVertex
100
AcDb2dVertex
 10
163.2754773897367
 20
-95.44964325955773
 30
0.0
  0
SEQEND
  5
1F6
330
1F0
100
AcDbEntity
  8
Outine
370
     0
  0
SPLINE
  5
1F7
330
1F
100
AcDbEntity
  8
Outine
370
     0
100
AcDbSpline
210
0.0
220
0.0
230
1.0
 70
    11
 71
     3
 72
    89
 73
    85
 74
     0
 42
0.0000000001
 43
0.0000000001
 40
0.0
 40
0.0
 40
0.0
 40
0.0
 40
1.0
 40
1.0
 40
1.0
 40
2.0
 40
2.0
 40
2.0
 40
3.0
 40
3.0
 40
3.0
 40
4.0
 40
4.0
 40
4.0
 40
5.0
 40
5.0
 40
5.0
 40
6.0
 40
6.0
 40
6.0
 40
7.0
 40
7.0
 40
7.0
 40
8.0
 40
8.0
 40
8.0
 40
9.0
 40
9.0
 40
9.0
 40
10.0
 40
10.0
 40
10.0
 40
11.0
 40
11.0
 40
11.0
 40
12.0
 40
12.0
 40
12.0
 40
13.0
 40
13.0
 40
13.0
 40
14.0
 40
14.0
 40
14.0
 40
15.0
 40
15.0
 40
15.0
 40
16.0
 40
16.0
 40
16.0
 40
17.0
 40
17.0
 40
17.0
 40
18.0
 40
18.0
 40
18.0
 40
19.0
 40
19.0
 40
19.0
 40
20.0
 40
20.0
 40
20.0
 40
21.0
 40
21.0
 40
21.0
 40
22.0
 40
22.0
 40
22.0
 40
23.0
 40
23.0
 40
23.0
 40
24.0
 40
24.0
 40
24.0
 40
25.0
 40
25.0
 40
25.0
 40
26.0
 40
26.0
 40
26.0
 40
27.0
 40
27.0
 40
27.0
 40
28.0
 40
28.0
 40
28.0
 40
28.0
 10
146.9999850435451
 20
-78.51028101335855
 30
0.0
 10
145.3499565608847
 20
-78.50459660580788
 30
0.0
 10
142.6767347191051
 20
-78.23243406247315
 30
0.0
 10
141.0594346435546
 20
-77.90549450092294
 30
0.0
 10
141.0594346435546
 20
-77.90549450092294
 30
0.0
 10
135.3023355781536
 20
-76.74156899123128
 30
0.0
 10
135.3023355781536
 20
-76.74156899123128
 30
0.0
 10
133.6850355026031
 20
-76.41462942968107
 30
0.0
 10
132.6523681308994
 20
-74.8286797230463
 30
0.0
 10
133.0073852206544
 20
-73.21740856459496
 30
0.0
 10
133.0073852206544
 20
-73.21740856459496
 30
0.0
 10
136.4709119667503
 20
-57.49898815836831
 30
0.0
 10
136.4709119667503
 20
-57.49898815836831
 30
0.0
 10
137.0000786332847
 20
-54.99991589336808
 30
0.0
 10
136.4688449094592
 20
-54.13295761450496
 30
0.0
 10
133.9968166440182
 20
-52.80435654061836
 30
0.0
 10
132.5000949104514
 20
-51.99992674481252
 30
0.0
 10
132.915228916424
 20
-51.09197182967493
 30
0.0
 10
133.2307996628729
 20
-49.47243244205898
 30
0.0
 10
133.2307996628729
 20
-49.47243244205898
 30
0.0
 10
134.8015909493725
 20
-41.41521537593092
 30
0.0
 10
134.8015909493725
 20
-41.41521537593092
 30
0.0
 10
135.1171616958214
 20
-39.79567598831497
 30
0.0
 10
136.7031114024562
 20
-38.71615531801194
 30
0.0
 10
138.3255791212346
 20
-39.0162231347772
 30
0.0
 10
138.3255791212346
 20
-39.0162231347772
 30
0.0
 10
142.1305148299188
 20
-39.71988388763948
 30
0.0
 10
142.1305148299188
 20
-39.71988388763948
 30
0.0
 10
143.7529825486972
 20
-40.01995170440473
 30
0.0
 10
145.3542629302413
 20
-38.94353162003843
 30
0.0
 10
145.6889539566333
 20
-37.32778183745625
 30
0.0
 10
145.6889539566333
 20
-37.32778183745625
 30
0.0
 10
147.4320000173955
 20
-28.91072454789385
 30
0.0
 10
147.4320000173955
 20
-28.91072454789385
 30
0.0
 10
147.7666910437875
 20
-27.29497476531168
 30
0.0
 10
149.3903645459858
 20
-25.97309162762131
 30
0.0
 10
151.0403930286462
 20
-25.97309162762131
 30
0.0
 10
151.0403930286462
 20
-25.97309162762131
 30
0.0
 10
153.8705389697789
 20
-25.97309162762131
 30
0.0
 10
153.8705389697789
 20
-25.97309162762131
 30
0.0
 10
155.5205674524393
 20
-25.97309162762131
 30
0.0
 10
158.2204887842296
 20
-25.97309162762131
 30
0.0
 10
159.87051726689
 20
-25.97309162762131
 30
0.0
 10
159.87051726689
 20
-25.97309162762131
 30
0.0
 10
171.3016885964975
 20
-25.97309162762131
 30
0.0
 10
171.3016885964975
 20
-25.97309162762131
 30
0.0
 10
172.9517170791579
 20
-25.97309162762131
 30
0.0
 10
174.5771131290988
 20
-27.29463025576315
 30
0.0
 10
174.9136989580077
 20
-28.9100355287968
 30
0.0
 10
174.9136989580077
 20
-28.9100355287968
 30
0.0
 10
176.286052744557
 20
-35.4951632940776
 30
0.0
 10
176.286052744557
 20
-35.4951632940776
 30
0.0
 10
176.6226385734659
 20
-37.11056856711125
 30
0.0
 10
175.5808416987263
 20
-38.72752413311326
 30
0.0
 10
173.9707763236948
 20
-39.08857013996744
 30
0.0
 10
173.9707763236948
 20
-39.08857013996744
 30
0.0
 10
170.5556531691666
 20
-39.85424261156422
 30
0.0
 10
170.5556531691666
 20
-39.85424261156422
 30
0.0
 10
168.9455877941352
 20
-40.2152886184184
 30
0.0
 10
167.9113701294631
 20
-41.83069389145205
 30
0.0
 10
168.2572577161822
 20
-43.44403210719455
 30
0.0
 10
168.2572577161822
 20
-43.44403210719455
 30
0.0
 10
171.8062228303124
 20
-59.99995522588543
 30
0.0
 10
171.8062228303124
 20
-59.99995522588543
 30
0.0
 10
172.2878471791503
 20
-62.13298609557787
 30
0.0
 10
173.5000040256354
 20
-63.00011662921525
 30
0.0
 10
175.7222628683958
 20
-62.89831405762612
 30
0.0
 10
177.5009656674303
 20
-62.81683754939996
 30
0.0
 10
177.5864040354645
 20
-63.94338377307665
 30
0.0
 10
177.9002522341708
 20
-65.56326767024113
 30
0.0
 10
177.9002522341708
 20
-65.56326767024113
 30
0.0
 10
179.3459865545559
 20
-73.02603351038933
 30
0.0
 10
179.3459865545559
 20
-73.02603351038933
 30
0.0
 10
179.6598347532621
 20
-74.6459174075538
 30
0.0
 10
178.6073580825183
 20
-76.30008000479651
 30
0.0
 10
177.0069389748455
 20
-76.70195039315091
 30
0.0
 10
177.0069389748455
 20
-76.70195039315091
 30
0.0
 10
172.4098035593281
 20
-77.85657414503238
 30
0.0
 10
172.4098035593281
 20
-77.85657414503238
 30
0.0
 10
170.8093844516553
 20
-78.25844453338678
 30
0.0
 10
168.150115246591
 20
-78.58262801854879
 30
0.0
 10
166.5000867639305
 20
-78.57694361099813
 30
0.0
 10
166.5000867639305
 20
-78.57694361099813
 30
0.0
 10
146.9999850435451
 20
-78.51028101335855
 30
0.0
 10
146.9999850435451
 20
-78.51028101335855
 30
0.0
  0
SPLINE
  5
1F8
330
1F
100
AcDbEntity
  8
Outine
370
     0
100
AcDbSpline
210
0.0
220
0.0
230
1.0
 70
    11
 71
     3
 72
    17
 73
    13
 74
     0
 42
0.0000000001
 43
0.0000000001
 40
0.0
 40
0.0
 40
0.0
 40
0.0
 40
1.0
 40
1.0
 40
1.0
 40
2.0
 40
2.0
 40
2.0
 40
3.0
 40
3.0
 40
3.0
 40
4.0
 40
4.0
 40
4.0
 40
4.0
 10
169.5000759124861
 20
-88.5000243919375
 30
0.0
 10
170.3286213766887
 20
-88.5000243919375
 30
0.0
 10
171.0000704867639
 20
-89.17164575678696
 30
0.0
 10
171.0000704867639
 20
-90.00001896621528
 30
0.0
 10
171.0000704867639
 20
-90.8283921756436
 30
0.0
 10
170.3286213766887
 20
-91.50001354049306
 30
0.0
 10
169.5000759124861
 20
-91.50001354049306
 30
0.0
 10
168.6715304482835
 20
-91.50001354049306
 30
0.0
 10
168.0000813382083
 20
-90.8283921756436
 30
0.0
 10
168.0000813382083
 20
-90.00001896621528
 30
0.0
 10
168.0000813382083
 20
-89.17164575678696
 30
0.0
 10
168.6715304482835
 20
-88.5000243919375
 30
0.0
 10
169.5000759124861
 20
-88.5000243919375
 30
0.0
  0
POLYLINE
  5
1F9
330
1F
100
AcDbEntity
  8
Outine
370
     0
100
AcDb2dPolyline
 66
     1
 10
0.0
 20
0.0
 30
0.0
  0
VERTEX
  5
1FA
330
1F9
100
AcDbEntity
  8
Outine
370
     0
100
AcDbVertex
100
AcDb2dVertex
 10
169.8104790157071
 20
-114.2648599974755
 30
0.0
  0
VERTEX
  5
1FB
330
1F9
100
AcDbEntity
  8
Outine
370
     0
100
AcDbVertex
100
AcDb2dVertex
 10
168.3321885429864
 20
-100.3432291415809
 30
0.0
  0
VERTEX
  5
1FC
330
1F9
100
AcDbEntity
  8
Outine
370
     0
100
AcDbVertex
100
AcDb2dVertex
 10
182.2541639084295
 20
-98.86493866886016
 30
0.0
  0
VERTEX
  5
1FD
330
1F9
100
AcDbEntity
  8
Outine
370
     0
100
AcDbVertex
100
AcDb2dVertex
 10
183.7321098716017
 20
-112.7863972699805
 30
0.0
  0
VERTEX
  5
1FE
330
1F9
100
AcDbEntity
  8
Outine
370
     0
100
AcDbVertex
100
AcDb2dVertex
 10
169.8104790157071
 20
-114.2648599974755
 30
0.0
  0
SEQEND
  5
1FF
330
1F9
100
AcDbEntity
  8
Outine
370
     0
  0
POLYLINE
  5
200
330
1F
100
AcDbEntity
  8
Outine
370
     0
100
AcDb2dPolyline
 66
     1
 10
0.0
 20
0.0
 30
0.0
  0
VERTEX
  5
201
330
200
100
AcDbEntity
  8
Outine
370
     0
100
AcDbVertex
100
AcDb2dVertex
 10
189.4544134726017
 20
-96.8013264731955
 30
0.0
  0
VERTEX
  5
202
330
200
100
AcDbEntity
  8
Outine
370
     0
100
AcDbVertex
100
AcDb2dVertex
 10
203.1486680264698
 20
-93.89090980725645
 30
0.0
  0
VERTEX
  5
203
330
200
100
AcDbEntity
  8
Outine
370
     0
100
AcDbVertex
100
AcDb2dVertex
 10
206.0590846924088
 20
-107.5844753420275
 30
0.0
  0
VERTEX
  5
204
330
200
100
AcDbEntity
  8
Outine
370
     0
100
AcDbVertex
100
AcDb2dVertex
 10
192.3651746480893
 20
-110.4948920079666
 30
0.0
  0
VERTEX
  5
205
330
200
100
AcDbEntity
  8
Outine
370
     0
100
AcDbVertex
100
AcDb2dVertex
 10
189.4544134726017
 20
-96.8013264731955
 30
0.0
  0
SEQEND
  5
206
330
200
100
AcDbEntity
  8
Outine
370
     0
  0
SPLINE
  5
207
330
1F
100
AcDbEntity
  8
Outine
370
     0
100
AcDbSpline
210
0.0
220
0.0
230
1.0
 70
    11
 71
     3
 72
    17
 73
    13
 74
     0
 42
0.0000000001
 43
0.0000000001
 40
0.0
 40
0.0
 40
0.0
 40
0.0
 40
1.0
 40
1.0
 40
1.0
 40
2.0
 40
2.0
 40
2.0
 40
3.0
 40
3.0
 40
3.0
 40
4.0
 40
4.0
 40
4.0
 40
4.0
 10
206.9999402694306
 20
-115.9999823386215
 30
0.0
 10
206.171394805228
 20
-115.9999823386215
 30
0.0
 10
205.4999456951528
 20
-115.3283609737721
 30
0.0
 10
205.4999456951528
 20
-114.4999877643438
 30
0.0
 10
205.4999456951528
 20
-113.6716145549154
 30
0.0
 10
206.171394805228
 20
-112.999993190066
 30
0.0
 10
206.9999402694306
 20
-112.999993190066
 30
0.0
 10
207.8281412240846
 20
-112.999993190066
 30
0.0
 10
208.4999348437084
 20
-113.6716145549154
 30
0.0
 10
208.4999348437084
 20
-114.4999877643438
 30
0.0
 10
208.4999348437084
 20
-115.3283609737721
 30
0.0
 10
207.8281412240846
 20
-115.9999823386215
 30
0.0
 10
206.9999402694306
 20
-115.9999823386215
 30
0.0
  0
POLYLINE
  5
208
330
1F
100
AcDbEntity
  8
Outine
370
     0
100
AcDb2dPolyline
 66
     1
 10
0.0
 20
0.0
 30
0.0
  0
VERTEX
  5
209
330
208
100
AcDbEntity
  8
Outine
370
     0
100
AcDbVertex
100
AcDb2dVertex
 10
195.3923800509783
 20
-90.37622339320455
 30
0.0
  0
VERTEX
  5
20A
330
208
100
AcDbEntity
  8
Outine
370
     0
100
AcDbVertex
100
AcDb2dVertex
 10
192.4819633850393
 20
-76.6826578584335
 30
0.0
  0
VERTEX
  5
20B
330
208
100
AcDbEntity
  8
Outine
370
     0
100
AcDbVertex
100
AcDb2dVertex
 10
206.1758734293588
 20
-73.7715521733974
 30
0.0
  0
VERTEX
  5
20C
330
208
100
AcDbEntity
  8
Outine
370
     0
100
AcDbVertex
100
AcDb2dVertex
 10
209.0866346048464
 20
-87.46511770816845
 30
0.0
  0
VERTEX
  5
20D
330
208
100
AcDbEntity
  8
Outine
370
     0
100
AcDbVertex
100
AcDb2dVertex
 10
195.3923800509783
 20
-90.37622339320455
 30
0.0
  0
SEQEND
  5
20E
330
208
100
AcDbEntity
  8
Outine
370
     0
  0
POLYLINE
  5
20F
330
1F
100
AcDbEntity
  8
Outine
370
     0
100
AcDb2dPolyline
 66
     1
 10
0.0
 20
0.0
 30
0.0
  0
VERTEX
  5
210
330
20F
100
AcDbEntity
  8
Outine
370
     0
100
AcDbVertex
100
AcDb2dVertex
 10
224.8093613804296
 20
-69.81107040355418
 30
0.0
  0
VERTEX
  5
211
330
20F
100
AcDbEntity
  8
Outine
370
     0
100
AcDbVertex
100
AcDb2dVertex
 10
227.7201225559172
 20
-83.50463593832524
 30
0.0
  0
VERTEX
  5
212
330
20F
100
AcDbEntity
  8
Outine
370
     0
100
AcDbVertex
100
AcDb2dVertex
 10
214.0262125115976
 20
-86.41539711381282
 30
0.0
  0
VERTEX
  5
213
330
20F
100
AcDbEntity
  8
Outine
370
     0
100
AcDbVertex
100
AcDb2dVertex
 10
211.11545133611
 20
-72.72183157904176
 30
0.0
  0
VERTEX
  5
214
330
20F
100
AcDbEntity
  8
Outine
370
     0
100
AcDbVertex
100
AcDb2dVertex
 10
224.8093613804296
 20
-69.81107040355418
 30
0.0
  0
SEQEND
  5
215
330
20F
100
AcDbEntity
  8
Outine
370
     0
  0
POLYLINE
  5
216
330
1F
100
AcDbEntity
  8
Outine
370
     0
100
AcDb2dPolyline
 66
     1
 10
0.0
 20
0.0
 30
0.0
  0
VERTEX
  5
217
330
216
100
AcDbEntity
  8
Outine
370
     0
100
AcDbVertex
100
AcDb2dVertex
 10
229.3520642872801
 20
-102.6331841106264
 30
0.0
  0
VERTEX
  5
218
330
216
100
AcDbEntity
  8
Outine
370
     0
100
AcDbVertex
100
AcDb2dVertex
 10
215.6578097334119
 20
-105.5442897956626
 30
0.0
  0
VERTEX
  5
219
330
216
100
AcDbEntity
  8
Outine
370
     0
100
AcDbVertex
100
AcDb2dVertex
 10
212.7470485579244
 20
-91.8507242608915
 30
0.0
  0
VERTEX
  5
21A
330
216
100
AcDbEntity
  8
Outine
370
     0
100
AcDbVertex
100
AcDb2dVertex
 10
226.4413031117925
 20
-88.93961857585538
 30
0.0
  0
VERTEX
  5
21B
330
216
100
AcDbEntity
  8
Outine
370
     0
100
AcDbVertex
100
AcDb2dVertex
 10
229.3520642872801
 20
-102.6331841106264
 30
0.0
  0
SEQEND
  5
21C
330
216
100
AcDbEntity
  8
Outine
370
     0
  0
SPLINE
  5
21D
330
1F
100
AcDbEntity
  8
Outine
370
     0
100
AcDbSpline
210
0.0
220
0.0
230
1.0
 70
    11
 71
     3
 72
    35
 73
    31
 74
     0
 42
0.0000000001
 43
0.0000000001
 40
0.0
 40
0.0
 40
0.0
 40
0.0
 40
1.0
 40
1.0
 40
1.0
 40
2.0
 40
2.0
 40
2.0
 40
3.0
 40
3.0
 40
3.0
 40
4.0
 40
4.0
 40
4.0
 40
5.0
 40
5.0
 40
5.0
 40
6.0
 40
6.0
 40
6.0
 40
7.0
 40
7.0
 40
7.0
 40
8.0
 40
8.0
 40
8.0
 40
9.0
 40
9.0
 40
9.0
 40
10.0
 40
10.0
 40
10.0
 40
10.0
 10
295.0000813064583
 20
-114.4999877643438
 30
0.0
 10
295.0000813064583
 20
-115.3283609737721
 30
0.0
 10
294.3282876868346
 20
-115.9999823386215
 30
0.0
 10
293.5000867321805
 20
-115.9999823386215
 30
0.0
 10
293.5000867321805
 20
-115.9999823386215
 30
0.0
 10
213.8983994690948
 20
-115.9999823386215
 30
0.0
 10
213.8983994690948
 20
-115.9999823386215
 30
0.0
 10
213.0701985144408
 20
-115.9999823386215
 30
0.0
 10
212.3984048948171
 20
-115.3283609737721
 30
0.0
 10
212.3984048948171
 20
-114.4999877643438
 30
0.0
 10
212.3984048948171
 20
-114.4999877643438
 30
0.0
 10
212.3984048948171
 20
-112.7124999718219
 30
0.0
 10
212.3984048948171
 20
-112.7124999718219
 30
0.0
 10
212.3984048948171
 20
-112.0019490279891
 30
0.0
 10
212.8969102115327
 20
-111.3888942863889
 30
0.0
 10
213.5924749900047
 20
-111.2440280212341
 30
0.0
 10
213.5924749900047
 20
-111.2440280212341
 30
0.0
 10
265.2702853069463
 20
-100.4843058017019
 30
0.0
 10
265.2702853069463
 20
-100.4843058017019
 30
0.0
 10
265.3708820951156
 20
-100.4632907192418
 30
0.0
 10
265.4735459405761
 20
-100.4527831780118
 30
0.0
 10
265.5762097860365
 20
-100.4527831780118
 30
0.0
 10
265.5762097860365
 20
-100.4527831780118
 30
0.0
 10
293.5000867321805
 20
-100.4527831780118
 30
0.0
 10
293.5000867321805
 20
-100.4527831780118
 30
0.0
 10
294.3282876868346
 20
-100.4527831780118
 30
0.0
 10
295.0000813064583
 20
-101.1244045428613
 30
0.0
 10
295.0000813064583
 20
-101.9527777522896
 30
0.0
 10
295.0000813064583
 20
-101.9527777522896
 30
0.0
 10
295.0000813064583
 20
-114.4999877643438
 30
0.0
 10
295.0000813064583
 20
-114.4999877643438
 30
0.0
  0
POLYLINE
  5
21E
330
1F
100
AcDbEntity
  8
Outine
370
     0
100
AcDb2dPolyline
 66
     1
 10
0.0
 20
0.0
 30
0.0
  0
VERTEX
  5
21F
330
21E
100
AcDbEntity
  8
Outine
370
     0
100
AcDbVertex
100
AcDb2dVertex
 10
316.9463730761454
 20
-114.3599446328683
 30
0.0
  0
VERTEX
  5
220
330
21E
100
AcDbEntity
  8
Outine
370
     0
100
AcDbVertex
100
AcDb2dVertex
 10
302.9461940431871
 20
-114.3599446328683
 30
0.0
  0
VERTEX
  5
221
330
21E
100
AcDbEntity
  8
Outine
370
     0
100
AcDbVertex
100
AcDb2dVertex
 10
302.9461940431871
 20
-100.3604546190071
 30
0.0
  0
VERTEX
  5
222
330
21E
100
AcDbEntity
  8
Outine
370
     0
100
AcDbVertex
100
AcDb2dVertex
 10
316.9463730761454
 20
-100.3604546190071
 30
0.0
  0
VERTEX
  5
223
330
21E
100
AcDbEntity
  8
Outine
370
     0
100
AcDbVertex
100
AcDb2dVertex
 10
316.9463730761454
 20
-114.3599446328683
 30
0.0
  0
SEQEND
  5
224
330
21E
100
AcDbEntity
  8
Outine
370
     0
  0
SPLINE
  5
225
330
1F
100
AcDbEntity
  8
Outine
370
     0
100
AcDbSpline
210
0.0
220
0.0
230
1.0
 70
    11
 71
     3
 72
    17
 73
    13
 74
     0
 42
0.0000000001
 43
0.0000000001
 40
0.0
 40
0.0
 40
0.0
 40
0.0
 40
1.0
 40
1.0
 40
1.0
 40
2.0
 40
2.0
 40
2.0
 40
3.0
 40
3.0
 40
3.0
 40
4.0
 40
4.0
 40
4.0
 40
4.0
 10
316.0000053463472
 20
-90.00001896621528
 30
0.0
 10
316.0000053463472
 20
-89.17164575678696
 30
0.0
 10
316.6714544564225
 20
-88.5000243919375
 30
0.0
 10
317.499999920625
 20
-88.5000243919375
 30
0.0
 10
318.3285453848276
 20
-88.5000243919375
 30
0.0
 10
318.9999944949028
 20
-89.17164575678696
 30
0.0
 10
318.9999944949028
 20
-90.00001896621528
 30
0.0
 10
318.9999944949028
 20
-90.8283921756436
 30
0.0
 10
318.3285453848276
 20
-91.50001354049306
 30
0.0
 10
317.499999920625
 20
-91.50001354049306
 30
0.0
 10
316.6714544564225
 20
-91.50001354049306
 30
0.0
 10
316.0000053463472
 20
-90.8283921756436
 30
0.0
 10
316.0000053463472
 20
-90.00001896621528
 30
0.0
  0
SPLINE
  5
226
330
1F
100
AcDbEntity
  8
Outine
370
     0
100
AcDbSpline
210
0.0
220
0.0
230
1.0
 70
    11
 71
     3
 72
    17
 73
    13
 74
     0
 42
0.0000000001
 43
0.0000000001
 40
0.0
 40
0.0
 40
0.0
 40
0.0
 40
1.0
 40
1.0
 40
1.0
 40
2.0
 40
2.0
 40
2.0
 40
3.0
 40
3.0
 40
3.0
 40
4.0
 40
4.0
 40
4.0
 40
4.0
 10
320.0001057142708
 20
-116.5000379483055
 30
0.0
 10
319.1715602500682
 20
-116.5000379483055
 30
0.0
 10
318.5001111399931
 20
-115.8284165834561
 30
0.0
 10
318.5001111399931
 20
-115.0000433740278
 30
0.0
 10
318.5001111399931
 20
-114.1716701645994
 30
0.0
 10
319.1715602500682
 20
-113.50004879975
 30
0.0
 10
320.0001057142708
 20
-113.50004879975
 30
0.0
 10
320.8283066689249
 20
-113.50004879975
 30
0.0
 10
321.5001002885486
 20
-114.1716701645994
 30
0.0
 10
321.5001002885486
 20
-115.0000433740278
 30
0.0
 10
321.5001002885486
 20
-115.8284165834561
 30
0.0
 10
320.8283066689249
 20
-116.5000379483055
 30
0.0
 10
320.0001057142708
 20
-116.5000379483055
 30
0.0
  0
HATCH
  5
227
330
1F
100
AcDbEntity
  8
Outine
 62
   252
420
  8882055
100
AcDbHatch
 10
0.0
 20
0.0
 30
0.0
210
0.0
220
0.0
230
1.0
  2
SOLID
 70
     1
 71
     0
 91
       95
 92
        1
 93
        1
 72
     4
 94
        3
 73
     0
 74
     1
 95
       50
 96
       46
 40
0.0
 40
0.0
 40
0.0
 40
0.0
 40
1.0
 40
1.0
 40
1.0
 40
2.0
 40
2.0
 40
2.0
 40
3.0
 40
3.0
 40
3.0
 40
4.0
 40
4.0
 40
4.0
 40
5.0
 40
5.0
 40
5.0
 40
6.0
 40
6.0
 40
6.0
 40
7.0
 40
7.0
 40
7.0
 40
8.0
 40
8.0
 40
8.0
 40
9.0
 40
9.0
 40
9.0
 40
10.0
 40
10.0
 40
10.0
 40
11.0
 40
11.0
 40
11.0
 40
12.0
 40
12.0
 40
12.0
 40
13.0
 40
13.0
 40
13.0
 40
14.0
 40
14.0
 40
14.0
 40
15.0
 40
15.0
 40
15.0
 40
15.0
 10
324.9996282824654
 20
-9.99577229567814
 10
324.9996282824654
 20
-4.997972275226202
 10
324.9996282824654
 20
-3.226504176710735
 10
323.3907686908537
 20
-1.609031846385937
 10
321.773985379626
 20
-0.0001722547742625
 10
320.0018282620134
 20
-0.0001722547742625
 10
315.0043727511101
 20
-0.0001722547742625
 10
315.0043727511101
 20
-0.0001722547742625
 10
315.0043727511101
 20
0.0
 10
315.0043727511101
 20
0.0
 10
315.0043727511101
 20
0.0
 10
10.0000786650347
 20
0.0
 10
10.0000786650347
 20
0.0
 10
5.002278644582764
 20
0.0
 10
3.230810546067298
 20
0.0
 10
1.613338215742499
 20
-1.608859591611674
 10
0.0044786241308248
 20
-3.225815157613685
 10
0.0044786241308248
 20
-4.997800020451939
 10
0.0044786241308248
 20
-9.995255531355353
 10
0.0044786241308248
 20
-9.995255531355353
 10
0.0
 20
-9.995255531355353
 10
0.0
 20
-9.995255531355353
 10
0.0
 20
-9.995255531355353
 10
0.0
 20
-110.0079277611265
 10
0.0
 20
-110.0079277611265
 10
0.0
 20
-115.0057277815784
 10
0.0
 20
-116.7771958800939
 10
1.608859591611674
 20
-118.3946682104187
 10
3.017214625981808
 20
-119.7959607990441
 10
4.545286728464373
 20
-119.9766560572454
 10
8.218103025289224
 20
-119.9999104517709
 10
8.218103025289224
 20
-119.9999104517709
 10
315.0043727511101
 20
-119.9999104517709
 10
315.0043727511101
 20
-119.9999104517709
 10
320.002172771562
 20
-119.9999104517709
 10
321.7736408700774
 20
-119.9999104517709
 10
323.3911132004022
 20
-118.3910508601592
 10
324.9999727920139
 20
-116.7740952941572
 10
324.9999727920139
 20
-115.0021104313189
 10
324.9999727920139
 20
-110.0046549204155
 10
324.9999727920139
 20
-110.0046549204155
 10
324.9999727920139
 20
-9.99577229567814
 10
324.9999727920139
 20
-9.99577229567814
 10
324.9999727920139
 20
-9.99577229567814
 10
324.9996282824654
 20
-9.99577229567814
 10
324.9996282824654
 20
-9.99577229567814
 97
        0
 92
        1
 93
        1
 72
     4
 94
        3
 73
     0
 74
     1
 95
       17
 96
       13
 40
0.0
 40
0.0
 40
0.0
 40
0.0
 40
1.0
 40
1.0
 40
1.0
 40
2.0
 40
2.0
 40
2.0
 40
3.0
 40
3.0
 40
3.0
 40
4.0
 40
4.0
 40
4.0
 40
4.0
 10
317.499999920625
 20
-5.999978297111117
 10
318.3285453848276
 20
-5.999978297111117
 10
318.9999944949028
 20
-6.671599661960572
 10
318.9999944949028
 20
-7.499972871388896
 10
318.9999944949028
 20
-8.32834608081722
 10
318.3285453848276
 20
-8.999967445666675
 10
317.499999920625
 20
-8.999967445666675
 10
316.6714544564225
 20
-8.999967445666675
 10
316.0000053463472
 20
-8.32834608081722
 10
316.0000053463472
 20
-7.499972871388896
 10
316.0000053463472
 20
-6.671599661960572
 10
316.6714544564225
 20
-5.999978297111117
 10
317.499999920625
 20
-5.999978297111117
 97
        0
 92
        1
 93
        1
 72
     4
 94
        3
 73
     0
 74
     1
 95
       23
 96
       19
 40
0.0
 40
0.0
 40
0.0
 40
0.0
 40
1.0
 40
1.0
 40
1.0
 40
2.0
 40
2.0
 40
2.0
 40
3.0
 40
3.0
 40
3.0
 40
4.0
 40
4.0
 40
4.0
 40
5.0
 40
5.0
 40
5.0
 40
6.0
 40
6.0
 40
6.0
 40
6.0
 10
316.0000053463472
 20
-14.50006238786804
 10
316.0000053463472
 20
-13.67168917843972
 10
316.6714544564225
 20
-13.00006781359026
 10
317.499999920625
 20
-13.00006781359026
 10
318.3285453848276
 20
-13.00006781359026
 10
318.9999944949028
 20
-13.67168917843972
 10
318.9999944949028
 20
-14.50006238786804
 10
318.9999944949028
 20
-14.50006238786804
 10
318.9999944949028
 20
-18.00010714610761
 10
318.9999944949028
 20
-18.00010714610761
 10
318.9999944949028
 20
-18.82848035553594
 10
318.3285453848276
 20
-19.50010172038539
 10
317.499999920625
 20
-19.50010172038539
 10
316.6714544564225
 20
-19.50010172038539
 10
316.0000053463472
 20
-18.82848035553594
 10
316.0000053463472
 20
-18.00010714610761
 10
316.0000053463472
 20
-18.00010714610761
 10
316.0000053463472
 20
-14.50006238786804
 10
316.0000053463472
 20
-14.50006238786804
 97
        0
 92
        1
 93
        4
 72
     1
 10
319.0168754627805
 20
-27.48962266022829
 11
319.0168754627805
 21
-41.48962943841232
 72
     1
 10
319.0168754627805
 20
-41.48962943841232
 11
305.0166964298222
 21
-41.48962943841232
 72
     1
 10
305.0166964298222
 20
-41.48962943841232
 11
305.0166964298222
 21
-27.48962266022829
 72
     1
 10
305.0166964298222
 20
-27.48962266022829
 11
319.0168754627805
 21
-27.48962266022829
 97
        0
 92
        1
 93
        1
 72
     4
 94
        3
 73
     0
 74
     1
 95
       23
 96
       19
 40
0.0
 40
0.0
 40
0.0
 40
0.0
 40
1.0
 40
1.0
 40
1.0
 40
2.0
 40
2.0
 40
2.0
 40
3.0
 40
3.0
 40
3.0
 40
4.0
 40
4.0
 40
4.0
 40
5.0
 40
5.0
 40
5.0
 40
6.0
 40
6.0
 40
6.0
 40
6.0
 10
318.9999944949028
 20
-69.99986163614587
 10
318.9999944949028
 20
-69.99986163614587
 10
318.9999944949028
 20
-82.99992944973613
 10
318.9999944949028
 20
-82.99992944973613
 10
318.9999944949028
 20
-83.82830265916445
 10
318.3285453848276
 20
-84.49992402401391
 10
317.499999920625
 20
-84.49992402401391
 10
316.6714544564225
 20
-84.49992402401391
 10
316.0000053463472
 20
-83.82830265916445
 10
316.0000053463472
 20
-82.99992944973613
 10
316.0000053463472
 20
-82.99992944973613
 10
316.0000053463472
 20
-69.99986163614587
 10
316.0000053463472
 20
-69.99986163614587
 10
316.0000053463472
 20
-69.17148842671754
 10
316.6714544564225
 20
-68.49986706186809
 10
317.499999920625
 20
-68.49986706186809
 10
318.3285453848276
 20
-68.49986706186809
 10
318.9999944949028
 20
-69.17148842671754
 10
318.9999944949028
 20
-69.99986163614587
 97
        0
 92
        1
 93
        4
 72
     1
 10
251.5446803841625
 20
-79.58980168366158
 11
251.5446803841625
 21
-65.59031166980034
 72
     1
 10
251.5446803841625
 20
-65.59031166980034
 11
265.5445149075722
 21
-65.59031166980034
 72
     1
 10
265.5445149075722
 20
-65.59031166980034
 11
265.5445149075722
 21
-79.58980168366158
 72
     1
 10
265.5445149075722
 20
-79.58980168366158
 11
251.5446803841625
 21
-79.58980168366158
 97
        0
 92
        1
 93
        1
 72
     4
 94
        3
 73
     0
 74
     1
 95
       17
 96
       13
 40
0.0
 40
0.0
 40
0.0
 40
0.0
 40
1.0
 40
1.0
 40
1.0
 40
2.0
 40
2.0
 40
2.0
 40
3.0
 40
3.0
 40
3.0
 40
4.0
 40
4.0
 40
4.0
 40
4.0
 10
265.5000731758125
 20
-90.00001896621528
 10
265.5000731758125
 20
-90.8283921756436
 10
264.8282795561888
 20
-91.50001354049306
 10
264.0000786015347
 20
-91.50001354049306
 10
263.1718776468807
 20
-91.50001354049306
 10
262.5000840272569
 20
-90.8283921756436
 10
262.5000840272569
 20
-90.00001896621528
 10
262.5000840272569
 20
-89.17164575678696
 10
263.1718776468807
 20
-88.5000243919375
 10
264.0000786015347
 20
-88.5000243919375
 10
264.8282795561888
 20
-88.5000243919375
 10
265.5000731758125
 20
-89.17164575678696
 10
265.5000731758125
 20
-90.00001896621528
 97
        0
 92
        1
 93
        4
 72
     1
 10
182.1149820508254
 20
-73.72263181750685
 11
179.2042208753379
 21
-60.02906628273579
 72
     1
 10
179.2042208753379
 20
-60.02906628273579
 11
192.8981309196574
 21
-57.1183051072482
 72
     1
 10
192.8981309196574
 20
-57.1183051072482
 11
195.808892095145
 21
-70.81221515156778
 72
     1
 10
195.808892095145
 20
-70.81221515156778
 11
182.1149820508254
 21
-73.72263181750685
 97
        0
 92
        1
 93
        4
 72
     1
 10
190.4528021442271
 20
-91.42628849710871
 11
176.758547590359
 21
-94.33670516304777
 72
     1
 10
176.758547590359
 20
-94.33670516304777
 11
173.8481309244199
 21
-80.64313962827671
 72
     1
 10
173.8481309244199
 20
-80.64313962827671
 11
187.5420409687395
 21
-77.73272296233766
 72
     1
 10
187.5420409687395
 20
-77.73272296233766
 11
190.4528021442271
 21
-91.42628849710871
 97
        0
 92
        1
 93
        4
 72
     1
 10
173.4960421658274
 20
-56.07943656367112
 11
170.5852809903398
 21
-42.38535426457727
 72
     1
 10
170.5852809903398
 20
-42.38535426457727
 11
184.2795355442079
 21
-39.47459308908969
 72
     1
 10
184.2795355442079
 20
-39.47459308908969
 11
187.1902967196955
 21
-53.16850313340927
 72
     1
 10
187.1902967196955
 20
-53.16850313340927
 11
173.4960421658274
 21
-56.07943656367112
 97
        0
 92
        1
 93
        1
 72
     4
 94
        3
 73
     0
 74
     1
 95
       17
 96
       13
 40
0.0
 40
0.0
 40
0.0
 40
0.0
 40
1.0
 40
1.0
 40
1.0
 40
2.0
 40
2.0
 40
2.0
 40
3.0
 40
3.0
 40
3.0
 40
4.0
 40
4.0
 40
4.0
 40
4.0
 10
176.499993174191
 20
-59.99995522588543
 10
176.499993174191
 20
-60.82832843531376
 10
175.8281995545673
 20
-61.49994980016321
 10
174.9999985999132
 20
-61.49994980016321
 10
174.1717976452591
 20
-61.49994980016321
 10
173.5000040256354
 20
-60.82832843531376
 10
173.5000040256354
 20
-59.99995522588543
 10
173.5000040256354
 20
-59.17158201645711
 10
174.1717976452591
 20
-58.49996065160765
 10
174.9999985999132
 20
-58.49996065160765
 10
175.8281995545673
 20
-58.49996065160765
 10
176.499993174191
 20
-59.17158201645711
 10
176.499993174191
 20
-59.99995522588543
 97
        0
 92
        1
 93
        4
 72
     1
 10
178.8524766262938
 20
-35.46536321813019
 11
175.9417154508062
 21
-21.77128091903635
 72
     1
 10
175.9417154508062
 20
-21.77128091903635
 11
189.6359700046744
 21
-18.86051974354876
 72
     1
 10
189.6359700046744
 20
-18.86051974354876
 11
192.5467311801619
 21
-32.5546020426426
 72
     1
 10
192.5467311801619
 20
-32.5546020426426
 11
178.8524766262938
 21
-35.46536321813019
 97
        0
 92
        1
 93
        4
 72
     1
 10
192.1298746264467
 20
-52.11861028427938
 11
189.2191134509591
 21
-38.42452798518553
 72
     1
 10
189.2191134509591
 20
-38.42452798518553
 11
202.9133680048272
 21
-35.51376680969795
 72
     1
 10
202.9133680048272
 20
-35.51376680969795
 11
205.8241291803148
 21
-49.20784910879179
 72
     1
 10
205.8241291803148
 20
-49.20784910879179
 11
192.1298746264467
 21
-52.11861028427938
 97
        0
 92
        1
 93
        4
 72
     1
 10
211.5319633802767
 20
-53.15747882785647
 11
214.4423800462158
 21
-66.85138887217605
 72
     1
 10
214.4423800462158
 20
-66.85138887217605
 11
200.7484700018962
 21
-69.76215004766364
 72
     1
 10
200.7484700018962
 20
-69.76215004766364
 11
197.8377088264086
 21
-56.06824000334405
 72
     1
 10
197.8377088264086
 20
-56.06824000334405
 11
211.5319633802767
 21
-53.15747882785647
 97
        0
 92
        1
 93
        4
 72
     1
 10
210.763707087066
 20
-48.1579562596619
 11
207.8529459115784
 21
-34.46387396056806
 72
     1
 10
207.8529459115784
 20
-34.46387396056806
 11
221.546855955898
 21
-31.55311278508047
 72
     1
 10
221.546855955898
 20
-31.55311278508047
 11
224.4576171313856
 21
-45.24719508417432
 72
     1
 10
224.4576171313856
 20
-45.24719508417432
 11
210.763707087066
 21
-48.1579562596619
 97
        0
 92
        1
 93
        4
 72
     1
 10
230.1654513313475
 20
-49.19682480323899
 11
233.0762125068351
 21
-62.89056259278431
 72
     1
 10
233.0762125068351
 20
-62.89056259278431
 11
219.3823024625156
 21
-65.8013237682719
 72
     1
 10
219.3823024625156
 20
-65.8013237682719
 11
216.4715412870279
 21
-52.10758597872658
 72
     1
 10
216.4715412870279
 20
-52.10758597872658
 11
230.1654513313475
 21
-49.19682480323899
 97
        0
 92
        1
 93
        4
 72
     1
 10
248.7992837919668
 20
-45.23617077862151
 11
251.7100449674545
 21
-58.92990856816683
 72
     1
 10
251.7100449674545
 20
-58.92990856816683
 11
238.0151013944893
 21
-61.84084199842868
 72
     1
 10
238.0151013944893
 20
-61.84084199842868
 11
235.1043402190017
 21
-48.14710420888336
 72
     1
 10
235.1043402190017
 20
-48.14710420888336
 11
248.7992837919668
 21
-45.23617077862151
 97
        0
 92
        1
 93
        4
 72
     1
 10
248.1106092044654
 20
-40.26541475772878
 11
248.1106092044654
 21
-26.26540797954476
 72
     1
 10
248.1106092044654
 20
-26.26540797954476
 11
262.1107882374237
 21
-26.26540797954476
 72
     1
 10
262.1107882374237
 20
-26.26540797954476
 11
262.1107882374237
 21
-40.26541475772878
 72
     1
 10
262.1107882374237
 20
-40.26541475772878
 11
248.1106092044654
 21
-40.26541475772878
 97
        0
 92
        1
 93
        4
 72
     1
 10
229.3971950381368
 20
-44.19712998027016
 11
226.4864338626492
 21
-30.50321993595059
 72
     1
 10
226.4864338626492
 20
-30.50321993595059
 11
240.1806884165173
 21
-27.59228650568874
 72
     1
 10
240.1806884165173
 20
-27.59228650568874
 11
243.0914495920049
 21
-41.28636880478258
 72
     1
 10
243.0914495920049
 20
-41.28636880478258
 11
229.3971950381368
 21
-44.19712998027016
 97
        0
 92
        1
 93
        4
 72
     1
 10
243.4431938410489
 20
-65.85024412416244
 11
246.353610506988
 21
-79.5438096589335
 72
     1
 10
246.353610506988
 20
-79.5438096589335
 11
232.660044972217
 21
-82.45457083442108
 72
     1
 10
232.660044972217
 20
-82.45457083442108
 11
229.7492837967293
 21
-68.76100529965002
 72
     1
 10
229.7492837967293
 20
-68.76100529965002
 11
243.4431938410489
 21
-65.85024412416244
 97
        0
 92
        1
 93
        4
 72
     1
 10
250.8391248287833
 20
-84.86183130473941
 11
252.8097194463462
 21
-98.72179495144803
 72
     1
 10
252.8097194463462
 20
-98.72179495144803
 11
238.9490667805405
 21
-100.6929063333337
 72
     1
 10
238.9490667805405
 20
-100.6929063333337
 11
236.9781276534291
 21
-86.83277043185083
 72
     1
 10
236.9781276534291
 20
-86.83277043185083
 11
250.8391248287833
 21
-84.86183130473941
 97
        0
 92
        1
 93
        4
 72
     1
 10
256.9114501310846
 20
-60.53790688590719
 11
256.9114501310846
 21
-46.53824461727169
 72
     1
 10
256.9114501310846
 20
-46.53824461727169
 11
270.9112846544944
 21
-46.53824461727169
 72
     1
 10
270.9112846544944
 20
-46.53824461727169
 11
270.9112846544944
 21
-60.53790688590719
 72
     1
 10
270.9112846544944
 20
-60.53790688590719
 11
256.9114501310846
 21
-60.53790688590719
 97
        0
 92
        1
 93
        4
 72
     1
 10
297.3923556114158
 20
-60.53790688590719
 11
297.3923556114158
 21
-46.53824461727169
 72
     1
 10
297.3923556114158
 20
-46.53824461727169
 11
311.3921901348256
 21
-46.53824461727169
 72
     1
 10
311.3921901348256
 20
-46.53824461727169
 11
311.3921901348256
 21
-60.53790688590719
 72
     1
 10
311.3921901348256
 20
-60.53790688590719
 11
297.3923556114158
 21
-60.53790688590719
 97
        0
 92
        1
 93
        4
 72
     1
 10
306.0254203879034
 20
-65.59031166980034
 11
306.0254203879034
 21
-79.58980168366158
 72
     1
 10
306.0254203879034
 20
-79.58980168366158
 11
292.0255858644936
 21
-79.58980168366158
 72
     1
 10
292.0255858644936
 20
-79.58980168366158
 11
292.0255858644936
 21
-65.59031166980034
 72
     1
 10
292.0255858644936
 20
-65.59031166980034
 11
306.0254203879034
 21
-65.59031166980034
 97
        0
 92
        1
 93
        4
 72
     1
 10
299.966875467543
 20
-41.48962943841232
 11
285.9666964345847
 21
-41.48962943841232
 72
     1
 10
285.9666964345847
 20
-41.48962943841232
 11
285.9666964345847
 21
-27.48962266022829
 72
     1
 10
285.9666964345847
 20
-27.48962266022829
 11
299.966875467543
 21
-27.48962266022829
 72
     1
 10
299.966875467543
 20
-27.48962266022829
 11
299.966875467543
 21
-41.48962943841232
 97
        0
 92
        1
 93
        4
 72
     1
 10
289.9612846497319
 20
-46.53824461727169
 11
289.9612846497319
 21
-60.53790688590719
 72
     1
 10
289.9612846497319
 20
-60.53790688590719
 11
275.9614501263222
 21
-60.53790688590719
 72
     1
 10
275.9614501263222
 20
-60.53790688590719
 11
275.9614501263222
 21
-46.53824461727169
 72
     1
 10
275.9614501263222
 20
-46.53824461727169
 11
289.9612846497319
 21
-46.53824461727169
 97
        0
 92
        1
 93
        4
 72
     1
 10
284.5945149028097
 20
-65.59031166980034
 11
284.5945149028097
 21
-79.58980168366158
 72
     1
 10
284.5945149028097
 20
-79.58980168366158
 11
270.5946803794
 21
-79.58980168366158
 72
     1
 10
270.5946803794
 20
-79.58980168366158
 11
270.5946803794
 21
-65.59031166980034
 72
     1
 10
270.5946803794
 20
-65.59031166980034
 11
284.5945149028097
 21
-65.59031166980034
 97
        0
 92
        1
 93
        4
 72
     1
 10
280.9168754723055
 20
-41.48962943841232
 11
266.9166964393472
 21
-41.48962943841232
 72
     1
 10
266.9166964393472
 20
-41.48962943841232
 11
266.9166964393472
 21
-27.48962266022829
 72
     1
 10
266.9166964393472
 20
-27.48962266022829
 11
280.9168754723055
 21
-27.48962266022829
 72
     1
 10
280.9168754723055
 20
-27.48962266022829
 11
280.9168754723055
 21
-41.48962943841232
 97
        0
 92
        1
 93
        1
 72
     4
 94
        3
 73
     0
 74
     1
 95
       23
 96
       19
 40
0.0
 40
0.0
 40
0.0
 40
0.0
 40
1.0
 40
1.0
 40
1.0
 40
2.0
 40
2.0
 40
2.0
 40
3.0
 40
3.0
 40
3.0
 40
4.0
 40
4.0
 40
4.0
 40
5.0
 40
5.0
 40
5.0
 40
6.0
 40
6.0
 40
6.0
 40
6.0
 10
271.0001681180138
 20
-88.5000243919375
 10
271.0001681180138
 20
-88.5000243919375
 10
310.4999104041459
 20
-88.5000243919375
 10
310.4999104041459
 20
-88.5000243919375
 10
311.3284558683484
 20
-88.5000243919375
 10
311.9999049784237
 20
-89.17164575678696
 10
311.9999049784237
 20
-90.00001896621528
 10
311.9999049784237
 20
-90.8283921756436
 10
311.3284558683484
 20
-91.50001354049306
 10
310.4999104041459
 20
-91.50001354049306
 10
310.4999104041459
 20
-91.50001354049306
 10
271.0001681180138
 20
-91.50001354049306
 10
271.0001681180138
 20
-91.50001354049306
 10
270.1716226538113
 20
-91.50001354049306
 10
269.5001735437361
 20
-90.8283921756436
 10
269.5001735437361
 20
-90.00001896621528
 10
269.5001735437361
 20
-89.17164575678696
 10
270.1716226538113
 20
-88.5000243919375
 10
271.0001681180138
 20
-88.5000243919375
 97
        0
 92
        1
 93
        4
 72
     1
 10
293.7088595185867
 20
-8.43962266499079
 11
307.7090385515449
 21
-8.43962266499079
 72
     1
 10
307.7090385515449
 20
-8.43962266499079
 11
307.7090385515449
 21
-22.43962944317482
 72
     1
 10
307.7090385515449
 20
-22.43962944317482
 11
293.7088595185867
 21
-22.43962944317482
 72
     1
 10
293.7088595185867
 20
-22.43962944317482
 11
293.7088595185867
 21
-8.43962266499079
 97
        0
 92
        1
 93
        4
 72
     1
 10
272.277954033493
 20
-8.43962266499079
 11
286.2781330664513
 21
-8.43962266499079
 72
     1
 10
286.2781330664513
 20
-8.43962266499079
 11
286.2781330664513
 21
-22.43962944317482
 72
     1
 10
286.2781330664513
 20
-22.43962944317482
 11
272.277954033493
 21
-22.43962944317482
 72
     1
 10
272.277954033493
 20
-22.43962944317482
 11
272.277954033493
 21
-8.43962266499079
 97
        0
 92
        1
 93
        4
 72
     1
 10
253.4005533220665
 20
-5.99463839910898
 11
267.4007323550248
 21
-5.99463839910898
 72
     1
 10
267.4007323550248
 20
-5.99463839910898
 11
267.4007323550248
 21
-19.99464517729301
 72
     1
 10
267.4007323550248
 20
-19.99464517729301
 11
253.4005533220665
 21
-19.99464517729301
 72
     1
 10
253.4005533220665
 20
-19.99464517729301
 11
253.4005533220665
 21
-5.994638399108979
 97
        0
 92
        1
 93
        4
 72
     1
 10
245.5371228769838
 20
-6.97838541492207
 11
248.4478840524714
 21
-20.67246771401591
 72
     1
 10
248.4478840524714
 20
-20.67246771401591
 11
234.7536294986033
 21
-23.5832288895035
 72
     1
 10
234.7536294986033
 20
-23.5832288895035
 11
231.8428683231157
 21
-9.889146590409657
 72
     1
 10
231.8428683231157
 20
-9.889146590409657
 11
245.5371228769838
 21
-6.97838541492207
 97
        0
 92
        1
 93
        4
 72
     1
 10
226.9032904163645
 20
-10.93903943953955
 11
229.8140515918521
 21
-24.63312173863339
 72
     1
 10
229.8140515918521
 20
-24.63312173863339
 11
216.1197970379839
 21
-27.54388291412097
 72
     1
 10
216.1197970379839
 20
-27.54388291412097
 11
213.2090358624964
 21
-13.84980061502713
 72
     1
 10
213.2090358624964
 20
-13.84980061502713
 11
226.9032904163645
 21
-10.93903943953955
 97
        0
 92
        1
 93
        1
 72
     4
 94
        3
 73
     0
 74
     1
 95
       17
 96
       13
 40
0.0
 40
0.0
 40
0.0
 40
0.0
 40
1.0
 40
1.0
 40
1.0
 40
2.0
 40
2.0
 40
2.0
 40
3.0
 40
3.0
 40
3.0
 40
4.0
 40
4.0
 40
4.0
 40
4.0
 10
199.0000840431319
 20
-5.999978297111117
 10
199.828284997786
 20
-5.999978297111117
 10
200.5000786174097
 20
-6.671599661960572
 10
200.5000786174097
 20
-7.499972871388896
 10
200.5000786174097
 20
-8.32834608081722
 10
199.828284997786
 20
-8.999967445666675
 10
199.0000840431319
 20
-8.999967445666675
 10
198.1718830884779
 20
-8.999967445666675
 10
197.5000894688542
 20
-8.32834608081722
 10
197.5000894688542
 20
-7.499972871388896
 10
197.5000894688542
 20
-6.671599661960572
 10
198.1718830884779
 20
-5.999978297111117
 10
199.0000840431319
 20
-5.999978297111117
 97
        0
 92
        1
 93
        4
 72
     1
 10
208.2694579557451
 20
-14.89969346415702
 11
211.1802191312327
 21
-28.59394801802512
 72
     1
 10
211.1802191312327
 20
-28.59394801802512
 11
197.4859645773646
 21
-31.50470919351271
 72
     1
 10
197.4859645773646
 20
-31.50470919351271
 11
194.575203401877
 21
-17.81062689441887
 72
     1
 10
194.575203401877
 20
-17.81062689441887
 11
208.2694579557451
 21
-14.89969346415702
 97
        0
 92
        1
 93
        1
 72
     4
 94
        3
 73
     0
 74
     1
 95
       23
 96
       19
 40
0.0
 40
0.0
 40
0.0
 40
0.0
 40
1.0
 40
1.0
 40
1.0
 40
2.0
 40
2.0
 40
2.0
 40
3.0
 40
3.0
 40
3.0
 40
4.0
 40
4.0
 40
4.0
 40
5.0
 40
5.0
 40
5.0
 40
6.0
 40
6.0
 40
6.0
 40
6.0
 10
164.5000365799687
 20
-5.999978297111117
 10
164.5000365799687
 20
-5.999978297111117
 10
191.9999945266528
 20
-5.999978297111117
 10
191.9999945266528
 20
-5.999978297111117
 10
192.8283677360811
 20
-5.999978297111117
 10
193.4999891009306
 20
-6.671599661960572
 10
193.4999891009306
 20
-7.499972871388896
 10
193.4999891009306
 20
-8.32834608081722
 10
192.8283677360811
 20
-8.999967445666675
 10
191.9999945266528
 20
-8.999967445666675
 10
191.9999945266528
 20
-8.999967445666675
 10
164.5000365799687
 20
-8.999967445666675
 10
164.5000365799687
 20
-8.999967445666675
 10
163.6716633705404
 20
-8.999967445666675
 10
163.000042005691
 20
-8.32834608081722
 10
163.000042005691
 20
-7.499972871388896
 10
163.000042005691
 20
-6.671599661960572
 10
163.6716633705404
 20
-5.999978297111117
 10
164.5000365799687
 20
-5.999978297111117
 97
        0
 92
        1
 93
        1
 72
     4
 94
        3
 73
     0
 74
     1
 95
       23
 96
       19
 40
0.0
 40
0.0
 40
0.0
 40
0.0
 40
1.0
 40
1.0
 40
1.0
 40
2.0
 40
2.0
 40
2.0
 40
3.0
 40
3.0
 40
3.0
 40
4.0
 40
4.0
 40
4.0
 40
5.0
 40
5.0
 40
5.0
 40
6.0
 40
6.0
 40
6.0
 40
6.0
 10
155.9999524892118
 20
-7.499628361840371
 10
155.9999524892118
 20
-6.671255152412048
 10
156.6715738540613
 20
-5.999633787562592
 10
157.4999470634896
 20
-5.999633787562592
 10
158.3283202729179
 20
-5.999633787562592
 10
158.9999416377674
 20
-6.671255152412048
 10
158.9999416377674
 20
-7.499628361840371
 10
158.9999416377674
 20
-7.499628361840371
 10
158.9999416377674
 20
-13.00006781359026
 10
158.9999416377674
 20
-13.00006781359026
 10
158.9999416377674
 20
-13.82844102301858
 10
158.3283202729179
 20
-14.50006238786804
 10
157.4999470634896
 20
-14.50006238786804
 10
156.6715738540613
 20
-14.50006238786804
 10
155.9999524892118
 20
-13.82844102301858
 10
155.9999524892118
 20
-13.00006781359026
 10
155.9999524892118
 20
-13.00006781359026
 10
155.9999524892118
 20
-7.499628361840371
 10
155.9999524892118
 20
-7.499628361840371
 97
        0
 92
        1
 93
        1
 72
     4
 94
        3
 73
     0
 74
     1
 95
       17
 96
       13
 40
0.0
 40
0.0
 40
0.0
 40
0.0
 40
1.0
 40
1.0
 40
1.0
 40
2.0
 40
2.0
 40
2.0
 40
3.0
 40
3.0
 40
3.0
 40
4.0
 40
4.0
 40
4.0
 40
4.0
 10
157.4999470634896
 20
-18.49999050101736
 10
158.3281480181437
 20
-18.49999050101736
 10
158.9999416377674
 20
-19.17161186586682
 10
158.9999416377674
 20
-19.99998507529514
 10
158.9999416377674
 20
-20.82835828472347
 10
158.3281480181437
 20
-21.49997964957292
 10
157.4999470634896
 20
-21.49997964957292
 10
156.6717461088355
 20
-21.49997964957292
 10
155.9999524892118
 20
-20.82835828472347
 10
155.9999524892118
 20
-19.99998507529514
 10
155.9999524892118
 20
-19.17161186586682
 10
156.6717461088355
 20
-18.49999050101736
 10
157.4999470634896
 20
-18.49999050101736
 97
        0
 92
        1
 93
        1
 72
     4
 94
        3
 73
     0
 74
     1
 95
       23
 96
       19
 40
0.0
 40
0.0
 40
0.0
 40
0.0
 40
1.0
 40
1.0
 40
1.0
 40
2.0
 40
2.0
 40
2.0
 40
3.0
 40
3.0
 40
3.0
 40
4.0
 40
4.0
 40
4.0
 40
5.0
 40
5.0
 40
5.0
 40
6.0
 40
6.0
 40
6.0
 40
6.0
 10
121.9999606357326
 20
-5.999978297111117
 10
121.9999606357326
 20
-5.999978297111117
 10
150.5000298017847
 20
-5.999978297111117
 10
150.5000298017847
 20
-5.999978297111117
 10
151.3284030112131
 20
-5.999978297111117
 10
152.0000243760625
 20
-6.671599661960572
 10
152.0000243760625
 20
-7.499972871388896
 10
152.0000243760625
 20
-8.32834608081722
 10
151.3284030112131
 20
-8.999967445666675
 10
150.5000298017847
 20
-8.999967445666675
 10
150.5000298017847
 20
-8.999967445666675
 10
121.9999606357326
 20
-8.999967445666675
 10
121.9999606357326
 20
-8.999967445666675
 10
121.1715874263043
 20
-8.999967445666675
 10
120.4999660614549
 20
-8.32834608081722
 10
120.4999660614549
 20
-7.499972871388896
 10
120.4999660614549
 20
-6.671599661960572
 10
121.1715874263043
 20
-5.999978297111117
 10
121.9999606357326
 20
-5.999978297111117
 97
        0
 92
        1
 93
        4
 72
     1
 10
116.750324135309
 20
-70.81428220885893
 11
119.6609130560223
 21
-57.12071667408788
 72
     1
 10
119.6609130560223
 20
-57.12071667408788
 11
133.3548231003419
 21
-60.03147784957547
 72
     1
 10
133.3548231003419
 20
-60.03147784957547
 11
130.4442341796285
 21
-73.72504338434652
 72
     1
 10
130.4442341796285
 20
-73.72504338434652
 11
116.750324135309
 21
-70.81428220885893
 97
        0
 92
        1
 93
        4
 72
     1
 10
138.7110853060341
 20
-80.6455511951164
 11
135.8004963853207
 21
-94.33911672988745
 72
     1
 10
135.8004963853207
 20
-94.33911672988745
 11
122.1065863410011
 21
-91.42835555439986
 72
     1
 10
122.1065863410011
 20
-91.42835555439986
 11
125.0171752617145
 21
-77.7347900196288
 72
     1
 10
125.0171752617145
 20
-77.7347900196288
 11
138.7110853060341
 21
-80.6455511951164
 97
        0
 92
        1
 93
        1
 72
     4
 94
        3
 73
     0
 74
     1
 95
       17
 96
       13
 40
0.0
 40
0.0
 40
0.0
 40
0.0
 40
1.0
 40
1.0
 40
1.0
 40
2.0
 40
2.0
 40
2.0
 40
3.0
 40
3.0
 40
3.0
 40
4.0
 40
4.0
 40
4.0
 40
4.0
 10
132.0000393007674
 20
-56.00002711273611
 10
132.0000393007674
 20
-55.17165390330779
 10
132.6718329203911
 20
-54.50003253845833
 10
133.5000338750451
 20
-54.50003253845833
 10
134.3282348296992
 20
-54.50003253845833
 10
135.0000284493229
 20
-55.17165390330779
 10
135.0000284493229
 20
-56.00002711273611
 10
135.0000284493229
 20
-56.82840032216443
 10
134.3282348296992
 20
-57.50002168701388
 10
133.5000338750451
 20
-57.50002168701388
 10
132.6718329203911
 20
-57.50002168701388
 10
132.0000393007674
 20
-56.82840032216443
 10
132.0000393007674
 20
-56.00002711273611
 97
        0
 92
        1
 93
        4
 72
     1
 10
129.7460855795427
 20
-54.10143499081492
 11
116.0518310256745
 21
-51.19067381532734
 72
     1
 10
116.0518310256745
 20
-51.19067381532734
 11
118.9625922011621
 21
-37.49641926145923
 72
     1
 10
118.9625922011621
 20
-37.49641926145923
 11
132.6568467550302
 21
-40.40718043694682
 72
     1
 10
132.6568467550302
 20
-40.40718043694682
 11
129.7460855795427
 21
-54.10143499081492
 97
        0
 92
        1
 93
        4
 72
     1
 10
129.3294012806017
 20
-34.53708223962962
 11
132.2401624560893
 21
-20.84317219531004
 72
     1
 10
132.2401624560893
 20
-20.84317219531004
 11
145.9354505386029
 21
-23.75427788034616
 72
     1
 10
145.9354505386029
 20
-23.75427788034616
 11
143.0246893631154
 21
-37.44818792466573
 72
     1
 10
143.0246893631154
 20
-37.44818792466573
 11
129.3294012806017
 21
-34.53708223962962
 97
        0
 92
        1
 93
        1
 72
     4
 94
        3
 73
     0
 74
     1
 95
       17
 96
       13
 40
0.0
 40
0.0
 40
0.0
 40
0.0
 40
1.0
 40
1.0
 40
1.0
 40
2.0
 40
2.0
 40
2.0
 40
3.0
 40
3.0
 40
3.0
 40
4.0
 40
4.0
 40
4.0
 40
4.0
 10
115.0000433740278
 20
-5.999978297111117
 10
115.8282443286818
 20
-5.999978297111117
 10
116.5000379483055
 20
-6.671599661960572
 10
116.5000379483055
 20
-7.499972871388896
 10
116.5000379483055
 20
-8.32834608081722
 10
115.8282443286818
 20
-8.999967445666675
 10
115.0000433740278
 20
-8.999967445666675
 10
114.1718424193737
 20
-8.999967445666675
 10
113.50004879975
 20
-8.32834608081722
 10
113.50004879975
 20
-7.499972871388896
 10
113.50004879975
 20
-6.671599661960572
 10
114.1718424193737
 20
-5.999978297111117
 10
115.0000433740278
 20
-5.999978297111117
 97
        0
 92
        1
 93
        4
 72
     1
 10
113.6065022502442
 20
-16.8823459159183
 11
127.3007568041123
 21
-19.79310709140589
 72
     1
 10
127.3007568041123
 20
-19.79310709140589
 11
124.3899956286247
 21
-33.48736164527399
 72
     1
 10
124.3899956286247
 20
-33.48736164527399
 11
110.6957410747566
 21
-30.57660046978641
 72
     1
 10
110.6957410747566
 20
-30.57660046978641
 11
113.6065022502442
 21
-16.8823459159183
 97
        0
 92
        1
 93
        4
 72
     1
 10
101.0274251049515
 20
-53.15989039469614
 11
114.7213351492711
 21
-56.07065157018373
 72
     1
 10
114.7213351492711
 20
-56.07065157018373
 11
111.8105739737835
 21
-69.76421710495478
 72
     1
 10
111.8105739737835
 20
-69.76421710495478
 11
98.1166639294639
 21
-66.85380043901571
 72
     1
 10
98.1166639294639
 20
-66.85380043901571
 11
101.0274251049515
 21
-53.15989039469614
 97
        0
 92
        1
 93
        4
 72
     1
 10
97.41817081982948
 20
-47.2298475359356
 11
100.3289319953171
 21
-33.53559298206749
 72
     1
 10
100.3289319953171
 20
-33.53559298206749
 11
114.0231865491852
 21
-36.4466986671036
 72
     1
 10
114.0231865491852
 20
-36.4466986671036
 11
111.1124253736976
 21
-50.14060871142318
 72
     1
 10
111.1124253736976
 20
-50.14060871142318
 11
97.41817081982948
 21
-47.2298475359356
 97
        0
 92
        1
 93
        4
 72
     1
 10
94.97370331827047
 20
-12.92186414607509
 11
108.6679578721386
 21
-15.83262532156268
 72
     1
 10
108.6679578721386
 20
-15.83262532156268
 11
105.757196696651
 21
-29.52687987543078
 72
     1
 10
105.757196696651
 20
-29.52687987543078
 11
92.06294214278287
 21
-26.61611869994319
 72
     1
 10
92.06294214278287
 20
-26.61611869994319
 11
94.97370331827047
 21
-12.92186414607509
 97
        0
 92
        1
 93
        4
 72
     1
 10
46.97887232983515
 20
-79.58945717411305
 11
46.97887232983515
 21
-65.58996716025182
 72
     1
 10
46.97887232983515
 20
-65.58996716025182
 11
60.97870685324491
 21
-65.58996716025182
 72
     1
 10
60.97870685324491
 20
-65.58996716025182
 11
60.97870685324491
 21
-79.58945717411305
 72
     1
 10
60.97870685324491
 20
-79.58945717411305
 11
46.97887232983515
 21
-79.58945717411305
 97
        0
 92
        1
 93
        1
 72
     4
 94
        3
 73
     0
 74
     1
 95
       17
 96
       13
 40
0.0
 40
0.0
 40
0.0
 40
0.0
 40
1.0
 40
1.0
 40
1.0
 40
2.0
 40
2.0
 40
2.0
 40
3.0
 40
3.0
 40
3.0
 40
4.0
 40
4.0
 40
4.0
 40
4.0
 10
50.00004881562499
 20
-90.00001896621528
 10
50.00004881562499
 20
-90.8283921756436
 10
49.32842745077554
 20
-91.50001354049306
 10
48.50005424134721
 20
-91.50001354049306
 10
47.67168103191889
 20
-91.50001354049306
 10
47.00005966706943
 20
-90.8283921756436
 10
47.00005966706943
 20
-90.00001896621528
 10
47.00005966706943
 20
-89.17164575678696
 10
47.67168103191889
 20
-88.5000243919375
 10
48.50005424134721
 20
-88.5000243919375
 10
49.32842745077554
 20
-88.5000243919375
 10
50.00004881562499
 20
-89.17164575678696
 10
50.00004881562499
 20
-90.00001896621528
 97
        0
 92
        1
 93
        4
 72
     1
 10
41.64982637847643
 20
-46.53996716501432
 11
55.6496609018862
 21
-46.53996716501432
 72
     1
 10
55.6496609018862
 20
-46.53996716501432
 11
55.6496609018862
 21
-60.53962943364981
 72
     1
 10
55.6496609018862
 20
-60.53962943364981
 11
41.64982637847643
 21
-60.53962943364981
 72
     1
 10
41.64982637847643
 20
-60.53962943364981
 11
41.64982637847643
 21
-46.53996716501432
 97
        0
 92
        1
 93
        4
 72
     1
 10
40.9950859815047
 20
-41.48980169318658
 11
40.9950859815047
 21
-27.48979491500255
 72
     1
 10
40.9950859815047
 20
-27.48979491500255
 11
54.99526501446299
 21
-27.48979491500255
 72
     1
 10
54.99526501446299
 20
-27.48979491500255
 11
54.99526501446299
 21
-41.48980169318658
 72
     1
 10
54.99526501446299
 20
-41.48980169318658
 11
40.9950859815047
 21
-41.48980169318658
 97
        0
 92
        1
 93
        4
 72
     1
 10
73.84493270723321
 20
-42.21930066218823
 11
60.15067815336511
 21
-39.30819497715212
 72
     1
 10
60.15067815336511
 20
-39.30819497715212
 11
63.0614393288527
 21
-25.61428493283254
 72
     1
 10
63.0614393288527
 20
-25.61428493283254
 11
76.7556938827208
 21
-28.52504610832013
 72
     1
 10
76.7556938827208
 20
-28.52504610832013
 11
73.84493270723321
 21
-42.21930066218823
 97
        0
 92
        1
 93
        4
 72
     1
 10
77.45367022803242
 20
-48.14899901140025
 11
74.5430813073191
 21
-61.84290905571983
 72
     1
 10
74.5430813073191
 20
-61.84290905571983
 11
60.84917126299951
 21
-58.93214788023224
 72
     1
 10
60.84917126299951
 20
-58.93214788023224
 11
63.75976018371284
 21
-45.23858234546119
 72
     1
 10
63.75976018371284
 20
-45.23858234546119
 11
77.45367022803242
 21
-48.14899901140025
 97
        0
 92
        1
 93
        4
 72
     1
 10
61.60313040994644
 20
-84.98413219446577
 11
75.47050101194836
 21
-86.90615096568666
 72
     1
 10
75.47050101194836
 20
-86.90615096568666
 11
73.54848224072747
 21
-100.7733493129143
 72
     1
 10
73.54848224072747
 20
-100.7733493129143
 11
59.6809393839513
 21
-98.85115828691916
 72
     1
 10
59.6809393839513
 20
-98.85115828691916
 11
61.60313040994644
 21
-84.98413219446577
 97
        0
 92
        1
 93
        4
 72
     1
 10
66.2054334686917
 20
-79.54622122577317
 11
69.11602238940503
 21
-65.85265569100211
 72
     1
 10
69.11602238940503
 20
-65.85265569100211
 11
82.8099324337246
 21
-68.7634168664897
 72
     1
 10
82.8099324337246
 20
-68.7634168664897
 11
79.89934351301127
 21
-82.45698240126076
 72
     1
 10
79.89934351301127
 20
-82.45698240126076
 11
66.2054334686917
 21
-79.54622122577317
 97
        0
 92
        1
 93
        4
 72
     1
 10
79.48283146884458
 20
-62.89297415962398
 11
82.39359264433216
 21
-49.1990641153044
 72
     1
 10
82.39359264433216
 20
-49.1990641153044
 11
96.08750268865174
 21
-52.10982529079199
 72
     1
 10
96.08750268865174
 20
-52.10982529079199
 11
93.17674151316415
 21
-65.80373533511157
 72
     1
 10
93.17674151316415
 20
-65.80373533511157
 11
79.48283146884458
 21
-62.89297415962398
 97
        0
 92
        1
 93
        4
 72
     1
 10
78.78451061398444
 20
-43.26902125654386
 11
81.69527178947202
 21
-29.57511121222428
 72
     1
 10
81.69527178947202
 20
-29.57511121222428
 11
95.38952634334012
 21
-32.48587238771186
 72
     1
 10
95.38952634334012
 20
-32.48587238771186
 11
92.47876516785253
 21
-46.17978243203144
 72
     1
 10
92.47876516785253
 20
-46.17978243203144
 11
78.78451061398444
 21
-43.26902125654386
 97
        0
 92
        1
 93
        4
 72
     1
 10
76.3400431124254
 20
-8.961037866683352
 11
90.03429766629351
 21
-11.87214355171946
 72
     1
 10
90.03429766629351
 20
-11.87214355171946
 11
87.12353649080593
 21
-25.56605359603904
 72
     1
 10
87.12353649080593
 20
-25.56605359603904
 11
73.42928193693783
 21
-22.65529242055145
 72
     1
 10
73.42928193693783
 20
-22.65529242055145
 11
76.3400431124254
 21
-8.961037866683352
 97
        0
 92
        1
 93
        4
 72
     1
 10
54.60269638391878
 20
-6.500033906795131
 11
68.60287541687707
 21
-6.500033906795131
 72
     1
 10
68.60287541687707
 20
-6.500033906795131
 11
68.60287541687707
 21
-20.50004068497916
 72
     1
 10
68.60287541687707
 20
-20.50004068497916
 11
54.60269638391878
 21
-20.50004068497916
 72
     1
 10
54.60269638391878
 20
-20.50004068497916
 11
54.60269638391878
 21
-6.500033906795132
 97
        0
 92
        1
 93
        4
 72
     1
 10
35.58611381488819
 20
-8.43979491976505
 11
49.58629284784649
 21
-8.43979491976505
 72
     1
 10
49.58629284784649
 20
-8.43979491976505
 11
49.58629284784649
 21
-22.43980169794908
 72
     1
 10
49.58629284784649
 20
-22.43980169794908
 11
35.58611381488819
 21
-22.43980169794908
 72
     1
 10
35.58611381488819
 20
-22.43980169794908
 11
35.58611381488819
 21
-8.43979491976505
 97
        0
 92
        1
 93
        4
 72
     1
 10
39.54780136815125
 20
-65.58996716025182
 11
39.54780136815125
 21
-79.58945717411305
 72
     1
 10
39.54780136815125
 20
-79.58945717411305
 11
25.54796684474148
 21
-79.58945717411305
 72
     1
 10
25.54796684474148
 20
-79.58945717411305
 11
25.54796684474148
 21
-65.58996716025182
 72
     1
 10
25.54796684474148
 20
-65.58996716025182
 11
39.54780136815125
 21
-65.58996716025182
 97
        0
 92
        1
 93
        4
 72
     1
 10
34.21875541679253
 20
-60.53962943364981
 11
20.21892089338277
 21
-60.53962943364981
 72
     1
 10
20.21892089338277
 20
-60.53962943364981
 11
20.21892089338277
 21
-46.53996716501432
 72
     1
 10
20.21892089338277
 20
-46.53996716501432
 11
34.21875541679253
 21
-46.53996716501432
 72
     1
 10
34.21875541679253
 20
-46.53996716501432
 11
34.21875541679253
 21
-60.53962943364981
 97
        0
 92
        1
 93
        4
 72
     1
 10
33.56435952936933
 20
-41.48980169318658
 11
19.56418049641104
 21
-41.48980169318658
 72
     1
 10
19.56418049641104
 20
-41.48980169318658
 11
19.56418049641104
 21
-27.48979491500255
 72
     1
 10
19.56418049641104
 20
-27.48979491500255
 11
33.56435952936933
 21
-27.48979491500255
 72
     1
 10
33.56435952936933
 20
-27.48979491500255
 11
33.56435952936933
 21
-41.48980169318658
 97
        0
 92
        1
 93
        4
 72
     1
 10
16.53611381965069
 20
-8.43979491976505
 11
30.53629285260898
 21
-8.43979491976505
 72
     1
 10
30.53629285260898
 20
-8.43979491976505
 11
30.53629285260898
 21
-22.43980169794908
 72
     1
 10
30.53629285260898
 20
-22.43980169794908
 11
16.53611381965069
 21
-22.43980169794908
 72
     1
 10
16.53611381965069
 20
-22.43980169794908
 11
16.53611381965069
 21
-8.43979491976505
 97
        0
 92
        1
 93
        1
 72
     4
 94
        3
 73
     0
 74
     1
 95
       23
 96
       19
 40
0.0
 40
0.0
 40
0.0
 40
0.0
 40
1.0
 40
1.0
 40
1.0
 40
2.0
 40
2.0
 40
2.0
 40
3.0
 40
3.0
 40
3.0
 40
4.0
 40
4.0
 40
4.0
 40
5.0
 40
5.0
 40
5.0
 40
6.0
 40
6.0
 40
6.0
 40
6.0
 10
14.50006238786804
 20
-88.5000243919375
 10
14.50006238786804
 20
-88.5000243919375
 10
41.50013697964233
 20
-88.5000243919375
 10
41.50013697964233
 20
-88.5000243919375
 10
42.32851018907066
 20
-88.5000243919375
 10
43.00013155392011
 20
-89.17164575678696
 10
43.00013155392011
 20
-90.00001896621528
 10
43.00013155392011
 20
-90.8283921756436
 10
42.32851018907066
 20
-91.50001354049306
 10
41.50013697964233
 20
-91.50001354049306
 10
41.50013697964233
 20
-91.50001354049306
 10
14.50006238786804
 20
-91.50001354049306
 10
14.50006238786804
 20
-91.50001354049306
 10
13.67168917843972
 20
-91.50001354049306
 10
13.00006781359026
 20
-90.8283921756436
 10
13.00006781359026
 20
-90.00001896621528
 10
13.00006781359026
 20
-89.17164575678696
 10
13.67168917843972
 20
-88.5000243919375
 10
14.50006238786804
 20
-88.5000243919375
 97
        0
 92
        1
 93
        1
 72
     4
 94
        3
 73
     0
 74
     1
 95
       17
 96
       13
 40
0.0
 40
0.0
 40
0.0
 40
0.0
 40
1.0
 40
1.0
 40
1.0
 40
2.0
 40
2.0
 40
2.0
 40
3.0
 40
3.0
 40
3.0
 40
4.0
 40
4.0
 40
4.0
 40
4.0
 10
7.499972871388896
 20
-5.999978297111117
 10
8.32834608081722
 20
-5.999978297111117
 10
8.999967445666675
 20
-6.671599661960572
 10
8.999967445666675
 20
-7.499972871388896
 10
8.999967445666675
 20
-8.32834608081722
 10
8.32834608081722
 20
-8.999967445666675
 10
7.499972871388896
 20
-8.999967445666675
 10
6.671599661960572
 20
-8.999967445666675
 10
5.999978297111117
 20
-8.32834608081722
 10
5.999978297111117
 20
-7.499972871388896
 10
5.999978297111117
 20
-6.671599661960572
 10
6.671599661960572
 20
-5.999978297111117
 10
7.499972871388896
 20
-5.999978297111117
 97
        0
 92
        1
 93
        1
 72
     4
 94
        3
 73
     0
 74
     1
 95
       23
 96
       19
 40
0.0
 40
0.0
 40
0.0
 40
0.0
 40
1.0
 40
1.0
 40
1.0
 40
2.0
 40
2.0
 40
2.0
 40
3.0
 40
3.0
 40
3.0
 40
4.0
 40
4.0
 40
4.0
 40
5.0
 40
5.0
 40
5.0
 40
6.0
 40
6.0
 40
6.0
 40
6.0
 10
5.999978297111117
 20
-14.50006238786804
 10
5.999978297111117
 20
-13.67168917843972
 10
6.671599661960572
 20
-13.00006781359026
 10
7.499972871388896
 20
-13.00006781359026
 10
8.32834608081722
 20
-13.00006781359026
 10
8.999967445666675
 20
-13.67168917843972
 10
8.999967445666675
 20
-14.50006238786804
 10
8.999967445666675
 20
-14.50006238786804
 10
8.999967445666675
 20
-83.0001017045104
 10
8.999967445666675
 20
-83.0001017045104
 10
8.999967445666675
 20
-83.82847491393872
 10
8.32834608081722
 20
-84.50009627878818
 10
7.499972871388896
 20
-84.50009627878818
 10
6.671599661960572
 20
-84.50009627878818
 10
5.999978297111117
 20
-83.82847491393872
 10
5.999978297111117
 20
-83.0001017045104
 10
5.999978297111117
 20
-83.0001017045104
 10
5.999978297111117
 20
-14.50006238786804
 10
5.999978297111117
 20
-14.50006238786804
 97
        0
 92
        1
 93
        1
 72
     4
 94
        3
 73
     0
 74
     1
 95
       17
 96
       13
 40
0.0
 40
0.0
 40
0.0
 40
0.0
 40
1.0
 40
1.0
 40
1.0
 40
2.0
 40
2.0
 40
2.0
 40
3.0
 40
3.0
 40
3.0
 40
4.0
 40
4.0
 40
4.0
 40
4.0
 10
5.000039332517352
 20
-116.5000379483055
 10
4.171666123089028
 20
-116.5000379483055
 10
3.500044758239572
 20
-115.8284165834561
 10
3.500044758239572
 20
-115.0000433740278
 10
3.500044758239572
 20
-114.1716701645994
 10
4.171666123089028
 20
-113.50004879975
 10
5.000039332517352
 20
-113.50004879975
 10
5.828412541945675
 20
-113.50004879975
 10
6.500033906795131
 20
-114.1716701645994
 10
6.500033906795131
 20
-115.0000433740278
 10
6.500033906795131
 20
-115.8284165834561
 10
5.828412541945675
 20
-116.5000379483055
 10
5.000039332517352
 20
-116.5000379483055
 97
        0
 92
        1
 93
        1
 72
     4
 94
        3
 73
     0
 74
     1
 95
       17
 96
       13
 40
0.0
 40
0.0
 40
0.0
 40
0.0
 40
1.0
 40
1.0
 40
1.0
 40
2.0
 40
2.0
 40
2.0
 40
3.0
 40
3.0
 40
3.0
 40
4.0
 40
4.0
 40
4.0
 40
4.0
 10
5.999978297111117
 20
-90.00001896621528
 10
5.999978297111117
 20
-89.17164575678696
 10
6.671599661960572
 20
-88.5000243919375
 10
7.499972871388896
 20
-88.5000243919375
 10
8.32834608081722
 20
-88.5000243919375
 10
8.999967445666675
 20
-89.17164575678696
 10
8.999967445666675
 20
-90.00001896621528
 10
8.999967445666675
 20
-90.8283921756436
 10
8.32834608081722
 20
-91.50001354049306
 10
7.499972871388896
 20
-91.50001354049306
 10
6.671599661960572
 20
-91.50001354049306
 10
5.999978297111117
 20
-90.8283921756436
 10
5.999978297111117
 20
-90.00001896621528
 97
        0
 92
        1
 93
        4
 72
     1
 10
22.011231819584
 20
-114.4850015989829
 11
8.011397296174234
 21
-114.4850015989829
 72
     1
 10
8.011397296174234
 20
-114.4850015989829
 11
8.011397296174234
 21
-100.4855115851217
 72
     1
 10
8.011397296174234
 20
-100.4855115851217
 11
22.011231819584
 21
-100.4855115851217
 72
     1
 10
22.011231819584
 20
-100.4855115851217
 11
22.011231819584
 21
-114.4850015989829
 97
        0
 92
        1
 93
        1
 72
     4
 94
        3
 73
     0
 74
     1
 95
       35
 96
       31
 40
0.0
 40
0.0
 40
0.0
 40
0.0
 40
1.0
 40
1.0
 40
1.0
 40
2.0
 40
2.0
 40
2.0
 40
3.0
 40
3.0
 40
3.0
 40
4.0
 40
4.0
 40
4.0
 40
5.0
 40
5.0
 40
5.0
 40
6.0
 40
6.0
 40
6.0
 40
7.0
 40
7.0
 40
7.0
 40
8.0
 40
8.0
 40
8.0
 40
9.0
 40
9.0
 40
9.0
 40
10.0
 40
10.0
 40
10.0
 40
10.0
 10
100.1013834385163
 20
-114.4999877643438
 10
100.1013834385163
 20
-115.3283609737721
 10
99.42976207366686
 20
-115.9999823386215
 10
98.60138886423854
 20
-115.9999823386215
 10
98.60138886423854
 20
-115.9999823386215
 10
31.50005831460762
 20
-115.9999823386215
 10
31.50005831460762
 20
-115.9999823386215
 10
30.6716851051793
 20
-115.9999823386215
 10
30.00006374032985
 20
-115.3283609737721
 10
30.00006374032985
 20
-114.4999877643438
 10
30.00006374032985
 20
-114.4999877643438
 10
30.00006374032985
 20
-101.9527777522896
 10
30.00006374032985
 20
-101.9527777522896
 10
30.00006374032985
 20
-101.1244045428613
 10
30.6716851051793
 20
-100.4527831780118
 10
31.50005831460762
 20
-100.4527831780118
 10
31.50005831460762
 20
-100.4527831780118
 10
46.92375080207115
 20
-100.4527831780118
 10
46.92375080207115
 20
-100.4527831780118
 10
47.0264146475316
 20
-100.4527831780118
 10
47.12890623821777
 20
-100.4632907192418
 10
47.22950302638707
 20
-100.4843058017019
 10
47.22950302638707
 20
-100.4843058017019
 10
98.90714108855447
 20
-111.2440280212341
 10
98.90714108855447
 20
-111.2440280212341
 10
99.60287812180067
 20
-111.3888942863889
 10
100.1013834385163
 20
-112.0019490279891
 10
100.1013834385163
 20
-112.7124999718219
 10
100.1013834385163
 20
-112.7124999718219
 10
100.1013834385163
 20
-114.4999877643438
 10
100.1013834385163
 20
-114.4999877643438
 97
        0
 92
        1
 93
        4
 72
     1
 10
83.20715194317391
 20
-102.6355956774661
 11
86.11791311866149
 21
-88.94203014269505
 72
     1
 10
86.11791311866149
 20
-88.94203014269505
 11
99.81182316298107
 21
-91.85279131818264
 72
     1
 10
99.81182316298107
 20
-91.85279131818264
 11
96.90106198749349
 21
-105.5463568529537
 72
     1
 10
96.90106198749349
 20
-105.5463568529537
 11
83.20715194317391
 21
-102.6355956774661
 97
        0
 92
        1
 93
        4
 72
     1
 10
98.53283146408208
 20
-86.4178086806525
 11
84.8389214197625
 21
-83.5070475051649
 72
     1
 10
84.8389214197625
 20
-83.5070475051649
 11
87.74968259525008
 21
-69.81348197039385
 72
     1
 10
87.74968259525008
 20
-69.81348197039385
 11
101.4435926395697
 21
-72.72424314588145
 72
     1
 10
101.4435926395697
 20
-72.72424314588145
 11
98.53283146408208
 21
-86.4178086806525
 97
        0
 92
        1
 93
        4
 72
     1
 10
106.3833428010951
 20
-73.77396374023706
 11
120.0772528454147
 21
-76.68472491572466
 72
     1
 10
120.0772528454147
 20
-76.68472491572466
 11
117.1666639247014
 21
-90.37829045049571
 72
     1
 10
117.1666639247014
 20
-90.37829045049571
 11
103.4727538803818
 21
-87.46752927500812
 72
     1
 10
103.4727538803818
 20
-87.46752927500812
 11
106.3833428010951
 21
-73.77396374023706
 97
        0
 92
        1
 93
        1
 72
     4
 94
        3
 73
     0
 74
     1
 95
       17
 96
       13
 40
0.0
 40
0.0
 40
0.0
 40
0.0
 40
1.0
 40
1.0
 40
1.0
 40
2.0
 40
2.0
 40
2.0
 40
3.0
 40
3.0
 40
3.0
 40
4.0
 40
4.0
 40
4.0
 40
4.0
 10
105.5000203186771
 20
-115.9999823386215
 10
104.6716471092488
 20
-115.9999823386215
 10
104.0000257443993
 20
-115.3283609737721
 10
104.0000257443993
 20
-114.4999877643438
 10
104.0000257443993
 20
-113.6716145549154
 10
104.6716471092488
 20
-112.999993190066
 10
105.5000203186771
 20
-112.999993190066
 10
106.3283935281054
 20
-112.999993190066
 10
107.0000148929549
 20
-113.6716145549154
 10
107.0000148929549
 20
-114.4999877643438
 10
107.0000148929549
 20
-115.3283609737721
 10
106.3283935281054
 20
-115.9999823386215
 10
105.5000203186771
 20
-115.9999823386215
 97
        0
 92
        1
 93
        4
 72
     1
 10
120.1938693275904
 20
-110.4973035748062
 11
106.4996147737223
 21
-107.5865423993186
 72
     1
 10
106.4996147737223
 20
-107.5865423993186
 11
109.4103759492099
 21
-93.89297686454759
 72
     1
 10
109.4103759492099
 20
-93.89297686454759
 11
123.104630503078
 21
-96.80373804003519
 72
     1
 10
123.104630503078
 20
-96.80373804003519
 11
120.1938693275904
 21
-110.4973035748062
 97
        0
 92
        1
 93
        4
 72
     1
 10
142.7439140810675
 20
-114.2645154879269
 11
128.8222832251729
 21
-112.786052760432
 72
     1
 10
128.8222832251729
 20
-112.786052760432
 11
130.3005736978936
 21
-98.86459415931164
 72
     1
 10
130.3005736978936
 20
-98.86459415931164
 11
144.2222045537882
 21
-100.3428846320323
 72
     1
 10
144.2222045537882
 20
-100.3428846320323
 11
142.7439140810675
 21
-114.2645154879269
 97
        0
 92
        1
 93
        1
 72
     4
 94
        3
 73
     0
 74
     1
 95
       17
 96
       13
 40
0.0
 40
0.0
 40
0.0
 40
0.0
 40
1.0
 40
1.0
 40
1.0
 40
2.0
 40
2.0
 40
2.0
 40
3.0
 40
3.0
 40
3.0
 40
4.0
 40
4.0
 40
4.0
 40
4.0
 10
143.0000569303958
 20
-91.50001354049306
 10
142.1716837209675
 20
-91.50001354049306
 10
141.500062356118
 20
-90.8283921756436
 10
141.500062356118
 20
-90.00001896621528
 10
141.500062356118
 20
-89.17164575678696
 10
142.1716837209675
 20
-88.5000243919375
 10
143.0000569303958
 20
-88.5000243919375
 10
143.8284301398241
 20
-88.5000243919375
 10
144.5000515046736
 20
-89.17164575678696
 10
144.5000515046736
 20
-90.00001896621528
 10
144.5000515046736
 20
-90.8283921756436
 10
143.8284301398241
 20
-91.50001354049306
 10
143.0000569303958
 20
-91.50001354049306
 97
        0
 92
        1
 93
        4
 72
     1
 10
163.2754773897367
 20
-114.4996432547952
 11
149.2256889817908
 21
-114.4996432547952
 72
     1
 10
149.2256889817908
 20
-114.4996432547952
 11
149.2256889817908
 21
-100.4501993563979
 72
     1
 10
149.2256889817908
 20
-100.4501993563979
 11
163.2754773897367
 21
-100.4501993563979
 72
     1
 10
163.2754773897367
 20
-100.4501993563979
 11
163.2754773897367
 21
-114.4996432547952
 97
        0
 92
        1
 93
        4
 72
     1
 10
163.2754773897367
 20
-95.44964325955773
 11
149.2256889817908
 21
-95.44964325955773
 72
     1
 10
149.2256889817908
 20
-95.44964325955773
 11
149.2256889817908
 21
-81.40019936116038
 72
     1
 10
149.2256889817908
 20
-81.40019936116038
 11
163.2754773897367
 21
-81.40019936116038
 72
     1
 10
163.2754773897367
 20
-81.40019936116038
 11
163.2754773897367
 21
-95.44964325955773
 97
        0
 92
        1
 93
        1
 72
     4
 94
        3
 73
     0
 74
     1
 95
       89
 96
       85
 40
0.0
 40
0.0
 40
0.0
 40
0.0
 40
1.0
 40
1.0
 40
1.0
 40
2.0
 40
2.0
 40
2.0
 40
3.0
 40
3.0
 40
3.0
 40
4.0
 40
4.0
 40
4.0
 40
5.0
 40
5.0
 40
5.0
 40
6.0
 40
6.0
 40
6.0
 40
7.0
 40
7.0
 40
7.0
 40
8.0
 40
8.0
 40
8.0
 40
9.0
 40
9.0
 40
9.0
 40
10.0
 40
10.0
 40
10.0
 40
11.0
 40
11.0
 40
11.0
 40
12.0
 40
12.0
 40
12.0
 40
13.0
 40
13.0
 40
13.0
 40
14.0
 40
14.0
 40
14.0
 40
15.0
 40
15.0
 40
15.0
 40
16.0
 40
16.0
 40
16.0
 40
17.0
 40
17.0
 40
17.0
 40
18.0
 40
18.0
 40
18.0
 40
19.0
 40
19.0
 40
19.0
 40
20.0
 40
20.0
 40
20.0
 40
21.0
 40
21.0
 40
21.0
 40
22.0
 40
22.0
 40
22.0
 40
23.0
 40
23.0
 40
23.0
 40
24.0
 40
24.0
 40
24.0
 40
25.0
 40
25.0
 40
25.0
 40
26.0
 40
26.0
 40
26.0
 40
27.0
 40
27.0
 40
27.0
 40
28.0
 40
28.0
 40
28.0
 40
28.0
 10
146.9999850435451
 20
-78.51028101335855
 10
145.3499565608847
 20
-78.50459660580788
 10
142.6767347191051
 20
-78.23243406247315
 10
141.0594346435546
 20
-77.90549450092294
 10
141.0594346435546
 20
-77.90549450092294
 10
135.3023355781536
 20
-76.74156899123128
 10
135.3023355781536
 20
-76.74156899123128
 10
133.6850355026031
 20
-76.41462942968107
 10
132.6523681308994
 20
-74.8286797230463
 10
133.0073852206544
 20
-73.21740856459496
 10
133.0073852206544
 20
-73.21740856459496
 10
136.4709119667503
 20
-57.49898815836831
 10
136.4709119667503
 20
-57.49898815836831
 10
137.0000786332847
 20
-54.99991589336808
 10
136.4688449094592
 20
-54.13295761450496
 10
133.9968166440182
 20
-52.80435654061836
 10
132.5000949104514
 20
-51.99992674481252
 10
132.915228916424
 20
-51.09197182967493
 10
133.2307996628729
 20
-49.47243244205898
 10
133.2307996628729
 20
-49.47243244205898
 10
134.8015909493725
 20
-41.41521537593092
 10
134.8015909493725
 20
-41.41521537593092
 10
135.1171616958214
 20
-39.79567598831497
 10
136.7031114024562
 20
-38.71615531801194
 10
138.3255791212346
 20
-39.0162231347772
 10
138.3255791212346
 20
-39.0162231347772
 10
142.1305148299188
 20
-39.71988388763948
 10
142.1305148299188
 20
-39.71988388763948
 10
143.7529825486972
 20
-40.01995170440473
 10
145.3542629302413
 20
-38.94353162003843
 10
145.6889539566333
 20
-37.32778183745625
 10
145.6889539566333
 20
-37.32778183745625
 10
147.4320000173955
 20
-28.91072454789385
 10
147.4320000173955
 20
-28.91072454789385
 10
147.7666910437875
 20
-27.29497476531168
 10
149.3903645459858
 20
-25.97309162762131
 10
151.0403930286462
 20
-25.97309162762131
 10
151.0403930286462
 20
-25.97309162762131
 10
153.8705389697789
 20
-25.97309162762131
 10
153.8705389697789
 20
-25.97309162762131
 10
155.5205674524393
 20
-25.97309162762131
 10
158.2204887842296
 20
-25.97309162762131
 10
159.87051726689
 20
-25.97309162762131
 10
159.87051726689
 20
-25.97309162762131
 10
171.3016885964975
 20
-25.97309162762131
 10
171.3016885964975
 20
-25.97309162762131
 10
172.9517170791579
 20
-25.97309162762131
 10
174.5771131290988
 20
-27.29463025576315
 10
174.9136989580077
 20
-28.9100355287968
 10
174.9136989580077
 20
-28.9100355287968
 10
176.286052744557
 20
-35.4951632940776
 10
176.286052744557
 20
-35.4951632940776
 10
176.6226385734659
 20
-37.11056856711125
 10
175.5808416987263
 20
-38.72752413311326
 10
173.9707763236948
 20
-39.08857013996744
 10
173.9707763236948
 20
-39.08857013996744
 10
170.5556531691666
 20
-39.85424261156422
 10
170.5556531691666
 20
-39.85424261156422
 10
168.9455877941352
 20
-40.2152886184184
 10
167.9113701294631
 20
-41.83069389145205
 10
168.2572577161822
 20
-43.44403210719455
 10
168.2572577161822
 20
-43.44403210719455
 10
171.8062228303124
 20
-59.99995522588543
 10
171.8062228303124
 20
-59.99995522588543
 10
172.2878471791503
 20
-62.13298609557787
 10
173.5000040256354
 20
-63.00011662921525
 10
175.7222628683958
 20
-62.89831405762612
 10
177.5009656674303
 20
-62.81683754939996
 10
177.5864040354645
 20
-63.94338377307665
 10
177.9002522341708
 20
-65.56326767024113
 10
177.9002522341708
 20
-65.56326767024113
 10
179.3459865545559
 20
-73.02603351038933
 10
179.3459865545559
 20
-73.02603351038933
 10
179.6598347532621
 20
-74.6459174075538
 10
178.6073580825183
 20
-76.30008000479651
 10
177.0069389748455
 20
-76.70195039315091
 10
177.0069389748455
 20
-76.70195039315091
 10
172.4098035593281
 20
-77.85657414503238
 10
172.4098035593281
 20
-77.85657414503238
 10
170.8093844516553
 20
-78.25844453338678
 10
168.150115246591
 20
-78.58262801854879
 10
166.5000867639305
 20
-78.57694361099813
 10
166.5000867639305
 20
-78.57694361099813
 10
146.9999850435451
 20
-78.51028101335855
 10
146.9999850435451
 20
-78.51028101335855
 97
        0
 92
        1
 93
        1
 72
     4
 94
        3
 73
     0
 74
     1
 95
       17
 96
       13
 40
0.0
 40
0.0
 40
0.0
 40
0.0
 40
1.0
 40
1.0
 40
1.0
 40
2.0
 40
2.0
 40
2.0
 40
3.0
 40
3.0
 40
3.0
 40
4.0
 40
4.0
 40
4.0
 40
4.0
 10
169.5000759124861
 20
-88.5000243919375
 10
170.3286213766887
 20
-88.5000243919375
 10
171.0000704867639
 20
-89.17164575678696
 10
171.0000704867639
 20
-90.00001896621528
 10
171.0000704867639
 20
-90.8283921756436
 10
170.3286213766887
 20
-91.50001354049306
 10
169.5000759124861
 20
-91.50001354049306
 10
168.6715304482835
 20
-91.50001354049306
 10
168.0000813382083
 20
-90.8283921756436
 10
168.0000813382083
 20
-90.00001896621528
 10
168.0000813382083
 20
-89.17164575678696
 10
168.6715304482835
 20
-88.5000243919375
 10
169.5000759124861
 20
-88.5000243919375
 97
        0
 92
        1
 93
        4
 72
     1
 10
169.8104790157071
 20
-114.2648599974755
 11
168.3321885429864
 21
-100.3432291415809
 72
     1
 10
168.3321885429864
 20
-100.3432291415809
 11
182.2541639084295
 21
-98.86493866886016
 72
     1
 10
182.2541639084295
 20
-98.86493866886016
 11
183.7321098716017
 21
-112.7863972699805
 72
     1
 10
183.7321098716017
 20
-112.7863972699805
 11
169.8104790157071
 21
-114.2648599974755
 97
        0
 92
        1
 93
        4
 72
     1
 10
189.4544134726017
 20
-96.8013264731955
 11
203.1486680264698
 21
-93.89090980725645
 72
     1
 10
203.1486680264698
 20
-93.89090980725645
 11
206.0590846924088
 21
-107.5844753420275
 72
     1
 10
206.0590846924088
 20
-107.5844753420275
 11
192.3651746480893
 21
-110.4948920079666
 72
     1
 10
192.3651746480893
 20
-110.4948920079666
 11
189.4544134726017
 21
-96.8013264731955
 97
        0
 92
        1
 93
        1
 72
     4
 94
        3
 73
     0
 74
     1
 95
       17
 96
       13
 40
0.0
 40
0.0
 40
0.0
 40
0.0
 40
1.0
 40
1.0
 40
1.0
 40
2.0
 40
2.0
 40
2.0
 40
3.0
 40
3.0
 40
3.0
 40
4.0
 40
4.0
 40
4.0
 40
4.0
 10
206.9999402694306
 20
-115.9999823386215
 10
206.171394805228
 20
-115.9999823386215
 10
205.4999456951528
 20
-115.3283609737721
 10
205.4999456951528
 20
-114.4999877643438
 10
205.4999456951528
 20
-113.6716145549154
 10
206.171394805228
 20
-112.999993190066
 10
206.9999402694306
 20
-112.999993190066
 10
207.8281412240846
 20
-112.999993190066
 10
208.4999348437084
 20
-113.6716145549154
 10
208.4999348437084
 20
-114.4999877643438
 10
208.4999348437084
 20
-115.3283609737721
 10
207.8281412240846
 20
-115.9999823386215
 10
206.9999402694306
 20
-115.9999823386215
 97
        0
 92
        1
 93
        4
 72
     1
 10
195.3923800509783
 20
-90.37622339320455
 11
192.4819633850393
 21
-76.6826578584335
 72
     1
 10
192.4819633850393
 20
-76.6826578584335
 11
206.1758734293588
 21
-73.7715521733974
 72
     1
 10
206.1758734293588
 20
-73.7715521733974
 11
209.0866346048464
 21
-87.46511770816845
 72
     1
 10
209.0866346048464
 20
-87.46511770816845
 11
195.3923800509783
 21
-90.37622339320455
 97
        0
 92
        1
 93
        4
 72
     1
 10
224.8093613804296
 20
-69.81107040355418
 11
227.7201225559172
 21
-83.50463593832524
 72
     1
 10
227.7201225559172
 20
-83.50463593832524
 11
214.0262125115976
 21
-86.41539711381282
 72
     1
 10
214.0262125115976
 20
-86.41539711381282
 11
211.11545133611
 21
-72.72183157904176
 72
     1
 10
211.11545133611
 20
-72.72183157904176
 11
224.8093613804296
 21
-69.81107040355418
 97
        0
 92
        1
 93
        4
 72
     1
 10
229.3520642872801
 20
-102.6331841106264
 11
215.6578097334119
 21
-105.5442897956626
 72
     1
 10
215.6578097334119
 20
-105.5442897956626
 11
212.7470485579244
 21
-91.8507242608915
 72
     1
 10
212.7470485579244
 20
-91.8507242608915
 11
226.4413031117925
 21
-88.93961857585538
 72
     1
 10
226.4413031117925
 20
-88.93961857585538
 11
229.3520642872801
 21
-102.6331841106264
 97
        0
 92
        1
 93
        1
 72
     4
 94
        3
 73
     0
 74
     1
 95
       35
 96
       31
 40
0.0
 40
0.0
 40
0.0
 40
0.0
 40
1.0
 40
1.0
 40
1.0
 40
2.0
 40
2.0
 40
2.0
 40
3.0
 40
3.0
 40
3.0
 40
4.0
 40
4.0
 40
4.0
 40
5.0
 40
5.0
 40
5.0
 40
6.0
 40
6.0
 40
6.0
 40
7.0
 40
7.0
 40
7.0
 40
8.0
 40
8.0
 40
8.0
 40
9.0
 40
9.0
 40
9.0
 40
10.0
 40
10.0
 40
10.0
 40
10.0
 10
295.0000813064583
 20
-114.4999877643438
 10
295.0000813064583
 20
-115.3283609737721
 10
294.3282876868346
 20
-115.9999823386215
 10
293.5000867321805
 20
-115.9999823386215
 10
293.5000867321805
 20
-115.9999823386215
 10
213.8983994690948
 20
-115.9999823386215
 10
213.8983994690948
 20
-115.9999823386215
 10
213.0701985144408
 20
-115.9999823386215
 10
212.3984048948171
 20
-115.3283609737721
 10
212.3984048948171
 20
-114.4999877643438
 10
212.3984048948171
 20
-114.4999877643438
 10
212.3984048948171
 20
-112.7124999718219
 10
212.3984048948171
 20
-112.7124999718219
 10
212.3984048948171
 20
-112.0019490279891
 10
212.8969102115327
 20
-111.3888942863889
 10
213.5924749900047
 20
-111.2440280212341
 10
213.5924749900047
 20
-111.2440280212341
 10
265.2702853069463
 20
-100.4843058017019
 10
265.2702853069463
 20
-100.4843058017019
 10
265.3708820951156
 20
-100.4632907192418
 10
265.4735459405761
 20
-100.4527831780118
 10
265.5762097860365
 20
-100.4527831780118
 10
265.5762097860365
 20
-100.4527831780118
 10
293.5000867321805
 20
-100.4527831780118
 10
293.5000867321805
 20
-100.4527831780118
 10
294.3282876868346
 20
-100.4527831780118
 10
295.0000813064583
 20
-101.1244045428613
 10
295.0000813064583
 20
-101.9527777522896
 10
295.0000813064583
 20
-101.9527777522896
 10
295.0000813064583
 20
-114.4999877643438
 10
295.0000813064583
 20
-114.4999877643438
 97
        0
 92
        1
 93
        4
 72
     1
 10
316.9463730761454
 20
-114.3599446328683
 11
302.9461940431871
 21
-114.3599446328683
 72
     1
 10
302.9461940431871
 20
-114.3599446328683
 11
302.9461940431871
 21
-100.3604546190071
 72
     1
 10
302.9461940431871
 20
-100.3604546190071
 11
316.9463730761454
 21
-100.3604546190071
 72
     1
 10
316.9463730761454
 20
-100.3604546190071
 11
316.9463730761454
 21
-114.3599446328683
 97
        0
 92
        1
 93
        1
 72
     4
 94
        3
 73
     0
 74
     1
 95
       17
 96
       13
 40
0.0
 40
0.0
 40
0.0
 40
0.0
 40
1.0
 40
1.0
 40
1.0
 40
2.0
 40
2.0
 40
2.0
 40
3.0
 40
3.0
 40
3.0
 40
4.0
 40
4.0
 40
4.0
 40
4.0
 10
316.0000053463472
 20
-90.00001896621528
 10
316.0000053463472
 20
-89.17164575678696
 10
316.6714544564225
 20
-88.5000243919375
 10
317.499999920625
 20
-88.5000243919375
 10
318.3285453848276
 20
-88.5000243919375
 10
318.9999944949028
 20
-89.17164575678696
 10
318.9999944949028
 20
-90.00001896621528
 10
318.9999944949028
 20
-90.8283921756436
 10
318.3285453848276
 20
-91.50001354049306
 10
317.499999920625
 20
-91.50001354049306
 10
316.6714544564225
 20
-91.50001354049306
 10
316.0000053463472
 20
-90.8283921756436
 10
316.0000053463472
 20
-90.00001896621528
 97
        0
 92
        1
 93
        1
 72
     4
 94
        3
 73
     0
 74
     1
 95
       17
 96
       13
 40
0.0
 40
0.0
 40
0.0
 40
0.0
 40
1.0
 40
1.0
 40
1.0
 40
2.0
 40
2.0
 40
2.0
 40
3.0
 40
3.0
 40
3.0
 40
4.0
 40
4.0
 40
4.0
 40
4.0
 10
320.0001057142708
 20
-116.5000379483055
 10
319.1715602500682
 20
-116.5000379483055
 10
318.5001111399931
 20
-115.8284165834561
 10
318.5001111399931
 20
-115.0000433740278
 10
318.5001111399931
 20
-114.1716701645994
 10
319.1715602500682
 20
-113.50004879975
 10
320.0001057142708
 20
-113.50004879975
 10
320.8283066689249
 20
-113.50004879975
 10
321.5001002885486
 20
-114.1716701645994
 10
321.5001002885486
 20
-115.0000433740278
 10
321.5001002885486
 20
-115.8284165834561
 10
320.8283066689249
 20
-116.5000379483055
 10
320.0001057142708
 20
-116.5000379483055
 97
        0
 75
     2
 76
     1
 98
        0
  0
ENDSEC
  0
SECTION
  2
OBJECTS
  0
DICTIONARY
  5
C
330
0
100
AcDbDictionary
281
     1
  3
ACAD_GROUP
350
D
  3
ACAD_LAYOUT
350
1A
  3
ACAD_MLINESTYLE
350
17
  3
ACAD_PLOTSETTINGS
350
19
  3
ACAD_PLOTSTYLENAME
350
E
  3
ACAD_TABLESTYLE
350
22C
  3
ACAD_VISUALSTYLE
350
2A
  0
DICTIONARY
  5
D
102
{ACAD_REACTORS
330
C
102
}
330
C
100
AcDbDictionary
281
     1
  0
DICTIONARY
  5
1A
102
{ACAD_REACTORS
330
C
102
}
330
C
100
AcDbDictionary
281
     1
  3
Layout1
350
1E
  3
Layout2
350
26
  3
Model
350
22
  0
DICTIONARY
  5
17
102
{ACAD_REACTORS
330
C
102
}
330
C
100
AcDbDictionary
281
     1
  3
Standard
350
18
  0
DICTIONARY
  5
19
102
{ACAD_REACTORS
330
C
102
}
330
C
100
AcDbDictionary
281
     1
  0
ACDBDICTIONARYWDFLT
  5
E
102
{ACAD_REACTORS
330
C
102
}
330
C
100
AcDbDictionary
281
     1
  3
Normal
350
F
100
AcDbDictionaryWithDefault
340
F
  0
DICTIONARY
  5
22C
102
{ACAD_REACTORS
330
C
102
}
330
C
100
AcDbDictionary
281
     1
  0
DICTIONARY
  5
2A
102
{ACAD_REACTORS
330
C
102
}
330
C
100
AcDbDictionary
281
     1
  3
2dWireframe
350
2F
  3
3D Hidden
350
31
  3
3dWireframe
350
30
  3
Basic
350
32
  3
Brighten
350
36
  3
ColorChange
350
3A
  3
Conceptual
350
34
  3
Dim
350
35
  3
Facepattern
350
39
  3
Flat
350
2B
  3
FlatWithEdges
350
2C
  3
Gouraud
350
2D
  3
GouraudWithEdges
350
2E
  3
Linepattern
350
38
  3
Realistic
350
33
  3
Thicken
350
37
  0
LAYOUT
  5
1E
102
{ACAD_REACTORS
330
1A
102
}
330
1A
100
AcDbPlotSettings
  1

  2
none_device
  4

  6

 40
0.0
 41
0.0
 42
0.0
 43
0.0
 44
0.0
 45
0.0
 46
0.0
 47
0.0
 48
0.0
 49
0.0
140
0.0
141
0.0
142
1.0
143
1.0
 70
   688
 72
     0
 73
     0
 74
     5
  7

 75
    16
 76
     0
 77
     2
 78
   300
147
1.0
148
0.0
149
0.0
100
AcDbLayout
  1
Layout1
 70
     1
 71
     1
 10
0.0
 20
0.0
 11
12.0
 21
9.0
 12
0.0
 22
0.0
 32
0.0
 14
1.000000000000000E+20
 24
1.000000000000000E+20
 34
1.000000000000000E+20
 15
-1.000000000000000E+20
 25
-1.000000000000000E+20
 35
-1.000000000000000E+20
146
0.0
 13
0.0
 23
0.0
 33
0.0
 16
1.0
 26
0.0
 36
0.0
 17
0.0
 27
1.0
 37
0.0
 76
     0
330
1B
  0
LAYOUT
  5
26
102
{ACAD_REACTORS
330
1A
102
}
330
1A
100
AcDbPlotSettings
  1

  2
none_device
  4

  6

 40
0.0
 41
0.0
 42
0.0
 43
0.0
 44
0.0
 45
0.0
 46
0.0
 47
0.0
 48
0.0
 49
0.0
140
0.0
141
0.0
142
1.0
143
1.0
 70
   688
 72
     0
 73
     0
 74
     5
  7

 75
    16
 76
     0
 77
     2
 78
   300
147
1.0
148
0.0
149
0.0
100
AcDbLayout
  1
Layout2
 70
     1
 71
     2
 10
0.0
 20
0.0
 11
0.0
 21
0.0
 12
0.0
 22
0.0
 32
0.0
 14
0.0
 24
0.0
 34
0.0
 15
0.0
 25
0.0
 35
0.0
146
0.0
 13
0.0
 23
0.0
 33
0.0
 16
1.0
 26
0.0
 36
0.0
 17
0.0
 27
1.0
 37
0.0
 76
     0
330
23
  0
LAYOUT
  5
22
102
{ACAD_REACTORS
330
1A
102
}
330
1A
100
AcDbPlotSettings
  1

  2
none_device
  4

  6

 40
0.0
 41
0.0
 42
0.0
 43
0.0
 44
0.0
 45
0.0
 46
0.0
 47
0.0
 48
0.0
 49
0.0
140
0.0
141
0.0
142
1.0
143
1.0
 70
  1712
 72
     0
 73
     0
 74
     0
  7

 75
     0
 76
     0
 77
     2
 78
   300
147
1.0
148
0.0
149
0.0
100
AcDbLayout
  1
Model
 70
     1
 71
     0
 10
0.0
 20
0.0
 11
12.0
 21
9.0
 12
0.0
 22
0.0
 32
0.0
 14
1.000000000000000E+20
 24
1.000000000000000E+20
 34
1.000000000000000E+20
 15
-1.000000000000000E+20
 25
-1.000000000000000E+20
 35
-1.000000000000000E+20
146
0.0
 13
0.0
 23
0.0
 33
0.0
 16
1.0
 26
0.0
 36
0.0
 17
0.0
 27
1.0
 37
0.0
 76
     0
330
1F
331
29
  0
MLINESTYLE
  5
18
102
{ACAD_REACTORS
330
17
102
}
330
17
100
AcDbMlineStyle
  2
Standard
 70
     0
  3

 62
   256
 51
90.0
 52
90.0
 71
     2
 49
0.5
 62
   256
  6
BYLAYER
 49
-0.5
 62
   256
  6
BYLAYER
  0
ACDBPLACEHOLDER
  5
F
102
{ACAD_REACTORS
330
E
102
}
330
E
  0
VISUALSTYLE
  5
2F
102
{ACAD_REACTORS
330
2A
102
}
330
2A
100
AcDbVisualStyle
  2
2dWireframe
 70
     4
 71
     0
 72
     2
 73
     0
 90
        0
 40
-0.6
 41
-30.0
 62
     5
 63
     7
421
 16777215
 74
     1
 91
        4
 64
     7
 65
   257
 75
     1
175
     1
 42
1.0
 92
        0
 66
   257
 43
1.0
 76
     1
 77
     6
 78
     2
 67
     7
 79
     5
170
     0
171
     0
290
     0
174
     0
 93
        1
 44
0.0
173
     0
291
     0
 45
0.0
1001
ACAD
1000
AcDbSavedByObjectVersion
1070
     0
  0
VISUALSTYLE
  5
31
102
{ACAD_REACTORS
330
2A
102
}
330
2A
100
AcDbVisualStyle
  2
3D Hidden
 70
     6
 71
     1
 72
     2
 73
     2
 90
        0
 40
-0.6
 41
-30.0
 62
     5
 63
     7
421
 16777215
 74
     2
 91
        2
 64
     7
 65
   257
 75
     2
175
     1
 42
40.0
 92
        0
 66
   257
 43
1.0
 76
     1
 77
     6
 78
     2
 67
     7
 79
     3
170
     0
171
     0
290
     0
174
     0
 93
        1
 44
0.0
173
     0
291
     0
 45
0.0
1001
ACAD
1000
AcDbSavedByObjectVersion
1070
     0
  0
VISUALSTYLE
  5
30
102
{ACAD_REACTORS
330
2A
102
}
330
2A
100
AcDbVisualStyle
  2
3dWireframe
 70
     5
 71
     0
 72
     2
 73
     0
 90
        0
 40
-0.6
 41
-30.0
 62
     5
 63
     7
421
 16777215
 74
     1
 91
        4
 64
     7
 65
   257
 75
     1
175
     1
 42
1.0
 92
        0
 66
   257
 43
1.0
 76
     1
 77
     6
 78
     2
 67
     7
 79
     5
170
     0
171
     0
290
     0
174
     0
 93
        1
 44
0.0
173
     0
291
     0
 45
0.0
1001
ACAD
1000
AcDbSavedByObjectVersion
1070
     0
  0
VISUALSTYLE
  5
32
102
{ACAD_REACTORS
330
2A
102
}
330
2A
100
AcDbVisualStyle
  2
Basic
 70
     7
 71
     1
 72
     0
 73
     1
 90
        0
 40
-0.6
 41
-30.0
 62
     5
 63
     7
421
 16777215
 74
     0
 91
        4
 64
     7
 65
   257
 75
     1
175
     1
 42
1.0
 92
        8
 66
     7
 43
1.0
 76
     1
 77
     6
 78
     2
 67
     7
 79
     5
170
     0
171
     0
290
     0
174
     0
 93
        1
 44
0.0
173
     0
291
     1
 45
0.0
1001
ACAD
1000
AcDbSavedByObjectVersion
1070
     0
  0
VISUALSTYLE
  5
36
102
{ACAD_REACTORS
330
2A
102
}
330
2A
100
AcDbVisualStyle
  2
Brighten
 70
    12
 71
     2
 72
     2
 73
     0
 90
        0
 40
-0.6
 41
-30.0
 62
     5
 63
     7
421
 16777215
 74
     1
 91
        4
 64
     7
 65
   257
 75
     1
175
     1
 42
1.0
 92
        8
 66
     7
 43
1.0
 76
     1
 77
     6
 78
     2
 67
     7
 79
     5
170
     0
171
     0
290
     0
174
     0
 93
        1
 44
50.0
173
     0
291
     1
 45
0.0
1001
ACAD
1000
AcDbSavedByObjectVersion
1070
     0
  0
VISUALSTYLE
  5
3A
102
{ACAD_REACTORS
330
2A
102
}
330
2A
100
AcDbVisualStyle
  2
ColorChange
 70
    16
 71
     2
 72
     2
 73
     3
 90
        0
 40
-0.6
 41
-30.0
 62
     5
 63
     8
421
  8421504
 74
     1
 91
        4
 64
     7
 65
   257
 75
     1
175
     1
 42
1.0
 92
        8
 66
     8
424
  8421504
 43
1.0
 76
     1
 77
     6
 78
     2
 67
     7
 79
     5
170
     0
171
     0
290
     0
174
     0
 93
        1
 44
0.0
173
     0
291
     1
 45
0.0
1001
ACAD
1000
AcDbSavedByObjectVersion
1070
     0
  0
VISUALSTYLE
  5
34
102
{ACAD_REACTORS
330
2A
102
}
330
2A
100
AcDbVisualStyle
  2
Conceptual
 70
     9
 71
     3
 72
     2
 73
     0
 90
        0
 40
-0.6
 41
-30.0
 62
     5
 63
     7
421
 16777215
 74
     2
 91
        2
 64
     7
 65
   257
 75
     1
175
     1
 42
40.0
 92
        8
 66
     7
 43
1.0
 76
     1
 77
     6
 78
     2
 67
     7
 79
     3
170
     0
171
     0
290
     0
174
     0
 93
        1
 44
0.0
173
     0
291
     0
 45
0.0
1001
ACAD
1000
AcDbSavedByObjectVersion
1070
     0
  0
VISUALSTYLE
  5
35
102
{ACAD_REACTORS
330
2A
102
}
330
2A
100
AcDbVisualStyle
  2
Dim
 70
    11
 71
     2
 72
     2
 73
     0
 90
        0
 40
-0.6
 41
-30.0
 62
     5
 63
     7
421
 16777215
 74
     1
 91
        4
 64
     7
 65
   257
 75
     1
175
     1
 42
1.0
 92
        8
 66
     7
 43
1.0
 76
     1
 77
     6
 78
     2
 67
     7
 79
     5
170
     0
171
     0
290
     0
174
     0
 93
        1
 44
-50.0
173
     0
291
     1
 45
0.0
1001
ACAD
1000
AcDbSavedByObjectVersion
1070
     0
  0
VISUALSTYLE
  5
39
102
{ACAD_REACTORS
330
2A
102
}
330
2A
100
AcDbVisualStyle
  2
Facepattern
 70
    15
 71
     2
 72
     2
 73
     0
 90
        0
 40
-0.6
 41
-30.0
 62
     5
 63
     7
421
 16777215
 74
     1
 91
        4
 64
     7
 65
   257
 75
     1
175
     1
 42
1.0
 92
        8
 66
     7
 43
1.0
 76
     1
 77
     6
 78
     2
 67
     7
 79
     5
170
     0
171
     0
290
     0
174
     0
 93
        1
 44
0.0
173
     0
291
     1
 45
0.0
1001
ACAD
1000
AcDbSavedByObjectVersion
1070
     0
  0
VISUALSTYLE
  5
2B
102
{ACAD_REACTORS
330
2A
102
}
330
2A
100
AcDbVisualStyle
  2
Flat
 70
     0
 71
     2
 72
     1
 73
     1
 90
        2
 40
-0.6
 41
30.0
 62
     5
 63
     7
421
 16777215
 74
     0
 91
        4
 64
     7
 65
   257
 75
     1
175
     1
 42
1.0
 92
        8
 66
     7
 43
1.0
 76
     1
 77
     6
 78
     2
 67
     7
 79
     5
170
     0
171
     0
290
     0
174
     0
 93
       13
 44
0.0
173
     0
291
     1
 45
0.0
1001
ACAD
1000
AcDbSavedByObjectVersion
1070
     0
  0
VISUALSTYLE
  5
2C
102
{ACAD_REACTORS
330
2A
102
}
330
2A
100
AcDbVisualStyle
  2
FlatWithEdges
 70
     1
 71
     2
 72
     1
 73
     1
 90
        2
 40
-0.6
 41
30.0
 62
     5
 63
     7
421
 16777215
 74
     1
 91
        4
 64
     7
 65
   257
 75
     1
175
     1
 42
1.0
 92
        0
 66
   257
 43
1.0
 76
     1
 77
     6
 78
     2
 67
     7
 79
     5
170
     0
171
     0
290
     0
174
     0
 93
       13
 44
0.0
173
     0
291
     1
 45
0.0
1001
ACAD
1000
AcDbSavedByObjectVersion
1070
     0
  0
VISUALSTYLE
  5
2D
102
{ACAD_REACTORS
330
2A
102
}
330
2A
100
AcDbVisualStyle
  2
Gouraud
 70
     2
 71
     2
 72
     2
 73
     1
 90
        2
 40
-0.6
 41
30.0
 62
     5
 63
     7
421
 16777215
 74
     0
 91
        4
 64
     7
 65
   257
 75
     1
175
     1
 42
1.0
 92
        0
 66
     7
 43
1.0
 76
     1
 77
     6
 78
     2
 67
     7
 79
     5
170
     0
171
     0
290
     0
174
     0
 93
       13
 44
0.0
173
     0
291
     1
 45
0.0
1001
ACAD
1000
AcDbSavedByObjectVersion
1070
     0
  0
VISUALSTYLE
  5
2E
102
{ACAD_REACTORS
330
2A
102
}
330
2A
100
AcDbVisualStyle
  2
GouraudWithEdges
 70
     3
 71
     2
 72
     2
 73
     1
 90
        2
 40
-0.6
 41
30.0
 62
     5
 63
     7
421
 16777215
 74
     1
 91
        4
 64
     7
 65
   257
 75
     1
175
     1
 42
1.0
 92
        0
 66
   257
 43
1.0
 76
     1
 77
     6
 78
     2
 67
     7
 79
     5
170
     0
171
     0
290
     0
174
     0
 93
       13
 44
0.0
173
     0
291
     1
 45
0.0
1001
ACAD
1000
AcDbSavedByObjectVersion
1070
     0
  0
VISUALSTYLE
  5
38
102
{ACAD_REACTORS
330
2A
102
}
330
2A
100
AcDbVisualStyle
  2
Linepattern
 70
    14
 71
     2
 72
     2
 73
     0
 90
        0
 40
-0.6
 41
-30.0
 62
     5
 63
     7
421
 16777215
 74
     1
 91
        4
 64
     7
 65
   257
 75
     7
175
     7
 42
1.0
 92
        8
 66
     7
 43
1.0
 76
     1
 77
     6
 78
     2
 67
     7
 79
     5
170
     0
171
     0
290
     0
174
     0
 93
        1
 44
0.0
173
     0
291
     1
 45
0.0
1001
ACAD
1000
AcDbSavedByObjectVersion
1070
     0
  0
VISUALSTYLE
  5
33
102
{ACAD_REACTORS
330
2A
102
}
330
2A
100
AcDbVisualStyle
  2
Realistic
 70
     8
 71
     2
 72
     2
 73
     0
 90
        0
 40
-0.6
 41
-30.0
 62
     5
 63
     7
421
 16777215
 74
     1
 91
        0
 64
     7
 65
   257
 75
     1
175
     1
 42
1.0
 92
        8
 66
     8
424
  7895160
 43
1.0
 76
     1
 77
     6
 78
     2
 67
     7
 79
     5
170
     0
171
     0
290
     0
174
     0
 93
       13
 44
0.0
173
     0
291
     0
 45
0.0
1001
ACAD
1000
AcDbSavedByObjectVersion
1070
     0
  0
VISUALSTYLE
  5
37
102
{ACAD_REACTORS
330
2A
102
}
330
2A
100
AcDbVisualStyle
  2
Thicken
 70
    13
 71
     2
 72
     2
 73
     0
 90
        0
 40
-0.6
 41
-30.0
 62
     5
 63
     7
421
 16777215
 74
     1
 91
        4
 64
     7
 65
   257
 75
     1
175
     1
 42
1.0
 92
       12
 66
     7
 43
1.0
 76
     1
 77
     6
 78
     2
 67
     7
 79
     5
170
     0
171
     0
290
     0
174
     0
 93
        1
 44
0.0
173
     0
291
     1
 45
0.0
1001
ACAD
1000
AcDbSavedByObjectVersion
1070
     0
  0
ENDSEC
  0
EOF
